Tabs by Artist
0-9 A B C D E F G H I J K L M N O P Q R S T U V W X Y Z

SELKIES: THE ENDLESS OBSESSION

As recorded by Between The Buried And Me

(From the 2005 Album ALASKA)

Tablature (Tab) for Guitar
Transcribed by ADayOfBurden, HumanPlethora, asteiosmetal, Jesse Blanchette
Music by Between The Buried And Me
Arranged by Xerocyber


E5/A

5 7 9 x x x
Fsus4

1 3 x 3 1 x
G5

3 5 5 x x x
Am

5 7 x 5 x x
Eb5/Ab

4 6 x 3 4 x
F5/Bb

6 8 x 5 6 x
G#5

4 6 6 x 4 4
F5

1 3 3 5 x x
G5(type 2)

3 5 5 7 x x
C5/F

1 3 5 5 x x
F5(type 2)

1 3 3 5 x x
Bb/A

5 x 3 3 3 x
Dm/A

x 0 3 2 3 x
Fm

1 3 x 1 1 x



Gtr I (Db Gb B E Ab Db) - 'Untitled'

Gtr II (Db Gb B E Ab Db) - 'Untitled'

Gtr III (Db Gb B E Ab Db) - 'Untitled'

Gtr IV (Db Gb B E Ab Db) - 'Piano'

Gtr V (Db Gb B E Ab Db) - 'Untitled'

Gtr VI (Db Gb B E Ab Db) - 'Untitled'


 Intro
  Q=180
  N.C.
 7/8
  Gtrs I, II
  Wx4
|--------|
|--------|
|--------|
|--------|
|--------|
|--------|


  PM|   PM          PM|   PM          PM|   PM          PM|   PM
  E E E E  E  E E   E E E E  E  E E   E E E E  E  E E   E E E E  E  E E
|-----------------|-----------------|-----------------|-----------------|
|-----------------|-----------------|-----------------|-----------------|
|-----------------|-----------------|-----------------|-----------------|
|-----9---10------|-----9---10------|-----9---10------|-----9---10------|
|-0-7---7----10-7-|-0-7---7----10-7-|-0-7---7----10-7-|-0-7---7----10-7-|
|-----------------|-----------------|-----------------|-----------------|


                                     4/4
  PM|   PM          PM|   PM
  E E E E  E  E E   E E E E  E  E E   E E E E E E E E   +E  E E  E  +E  E E E
|-----------------|-----------------|-----------------|------------------------|
|-----------------|-----------------|-----------------|------------------------|
|-----------------|-----------------|-7---------0-----|---------------------7--|
|-----9---10------|-----9---10------|---7-----4-------|-------7-10-(10)-9------|
|-0-7---7----10-7-|-0-7---7----10-7-|-----9-5-----3---|-----7-------------7----|
|-----------------|-----------------|---------------1-|-(1)--------------------|


 7/8             6/8           7/8
  E E E E E E E   E E E E E E   E E E E E E E   E E E E  E E  E
|---------------|-------------|---------------|-----------------|
|---------------|-------------|---------------|-----------------|
|-9---7---5-----|-9---7---5---|-9---7---5-----|-9---------------|
|---7---7---7-5-|---7---7---7-|---7---7---7-5-|---7---7-10-9----|
|---------------|-------------|---------------|-----7--------10-|
|---------------|-------------|---------------|-----------------|


  N.C.
  Gtr I
  E E E E  E  E  E   E E E E  E  E  E   E E E E  E  E  E   E E E E  E  E  E
|------------------|------------------|------------------|------------------|
|------------------|------------------|------------------|------------------|
|-----7----9--7----|-----7----9--7----|-----7----9--7----|-----7----9--7----|
|---7---7-------10-|---7---7-------10-|---7---7-------10-|---7---7-------10-|
|-0----------------|-0----------------|-0----------------|-0----------------|
|------------------|------------------|------------------|------------------|
|
| Gtr II
| PM|   PM           PM|   PM           PM|   PM           PM|   PM
| E E E E  E  E  E   E E E E  E  E  E   E E E E  E  E  E   E E E E  E  E  E
|------------------|------------------|------------------|------------------|
|------------------|------------------|------------------|------------------|
|------------------|------------------|------------------|------------------|
|-----9---10-------|-----9---10-------|-----9---10-------|-----9---10-------|
|-0-7---7----10--7-|-0-7---7----10--7-|-0-7---7----10--7-|-0-7---7----10--7-|
|------------------|------------------|------------------|------------------|


  E E E E  E  E E   E E E E  E  E E
|-----------------|-----------------|
|-----8---10--8---|-----8---10--8---|
|---9---9-------9-|---9---9-------9-|
|-7---------------|-7---------------|
|-----------------|-----------------|
|-----------------|-----------------|
|
| PM|   PM          PM|   PM
| E E E E  E  E E   E E E E  E  E E
|-----------------|-----------------|
|-----------------|-----------------|
|-----------------|-----------------|
|-----9---10------|-----9---10------|
|-0-7---7----10-7-|-0-7---7----10-7-|
|-----------------|-----------------|


 4/4
   E  E  E E E E E E   +E  E  E  E  +E   E E  E
|-10-------------8---|---------------------------|
|----10------7-8---6-|-(6)---10-13-(13)-12-------|
|-------11-7---------|-----9---------------9-12--|
|--------------------|---------------------------|
|--------------------|---------------------------|
|--------------------|---------------------------|
|
|  E  E  E E E E E E   +E  E  E  E  +E   E E  E
|--------------------|---------------------------|
|--------------------|---------------------------|
|--7-----------0-----|------------------------7--|
|-----7------4-------|--------7-10-(10)--9-------|
|--------9-5-----3---|-----7---------------7-----|
|------------------1-|-(1)-----------------------|


 7/8                    6/8
   E  E  E  E  E  E  E    E  E  E  E  E  E
|----------------------|-------------------|
|----------------------|-------------------|
|-16----14----12-------|-16----14----12----|
|----14----14----14-12-|----14----14----14-|
|----------------------|-------------------|
|----------------------|-------------------|
|
|  E  E  E  E  E  E  E    E  E  E  E  E  E
|----------------------|-------------------|
|----------------------|-------------------|
|--9-----7-----5-------|--9-----7-----5----|
|-----7-----7-----7--5-|-----7-----7-----7-|
|----------------------|-------------------|
|----------------------|-------------------|


 7/8                    4/4
   E  E  E  E  E  E  E    E  E  E  E  E  E  E  E
|----------------------|--------------------------|
|----------------------|--------------------------|
|-16----14----12-------|-16----------14----12-----|
|----14----14----14-12-|----14-12-14----14----14--|
|----------------------|--------------------------|
|----------------------|--------------------------|
|
|  E  E  E  E  E  E  E    E  E  E  E  E  E  E  E
|----------------------|--------------------------|
|----------------------|--------------------------|
|--9-----7-----5-------|--9-----------9-----7-----|
|-----7-----7-----7--5-|-----7--5--7-----7-----7--|
|----------------------|--------------------------|
|----------------------|--------------------------|


 7/8                    6/8
   E  E  E  E  E  E  E    E  E  E  E  E  E
|----------------------|-------------------|
|----------------------|-------------------|
|-16----14----12-------|-16----14----12----|
|----14----14----14-12-|----14----14----14-|
|----------------------|-------------------|
|----------------------|-------------------|
|
|  E  E  E  E  E  E  E    E  E  E  E  E  E
|----------------------|-------------------|
|----------------------|-------------------|
|--9-----7-----5-------|--9-----7-----5----|
|-----7-----7-----7--5-|-----7-----7-----7-|
|----------------------|-------------------|
|----------------------|-------------------|


 7/8                    6/8
   E  E  E  E  E  E  E    E  E  E  E  E  E
|----------------------|-------------------||
|----------------------|-------------------||
|-16----14----12-------|-16----------12-16-||
|----14----14----14-12-|----14-12-14-------||
|----------------------|-------------------||
|----------------------|-------------------||
|
|  E  E  E  E  E  E  E    E  E  E  E  E  E
|----------------------|-------------------||
|----------------------|-------------------||
|--9-----7-----5-------|--9--------------9-||
|-----7-----7-----7--5-|-----7--5--7-10----||
|----------------------|-------------------||
|----------------------|-------------------||


 7/8                    6/8
   E  E  E  E  E  E  E    E  E  E  E  E  E
|----------------------|-------------------|
|----------------------|-------------------|
|-15----14----12-------|-15----14----12----|
|----13----13----13-12-|----13----13----13-|
|----------------------|-------------------|
|----------------------|-------------------|
|
|  E  E  E  E  E  E  E    E  E  E  E  E  E
|----------------------|-------------------|
|----------------------|-------------------|
|-12----10-----8-------|-12----10-----8----|
|----10----10----10--8-|----10----10----10-|
|----------------------|-------------------|
|----------------------|-------------------|


 7/8                    6/8
   E  E  E  E  E  E  E    E  E  E  E  E  E
|----------------------|-------------------||
|----------------------|-------------------||
|-15----14----12-------|-15----14----12----||
|----13----13----13-12-|----13----13----13-||
|----------------------|-------------------||
|----------------------|-------------------||
|
|  E  E  E  E  E  E  E    E  E  E  E  E  E
|----------------------|-------------------||
|----------------------|-------------------||
|-12----10-----8-------|-12----10-----8----||
|----10----10----10--8-|----10----10----10-||
|----------------------|-------------------||
|----------------------|-------------------||


 7/8                    6/8
   E  E  E  E  E  E  E    E  E  E  E  E  E
|----------------------|-------------------|
|----------------------|-------------------|
|-16----14----12-------|-16----14----12----|
|----14----14----14-12-|----14----14----14-|
|----------------------|-------------------|
|----------------------|-------------------|
|
|  E  E  E  E  E  E  E    E  E  E  E  E  E
|----------------------|-------------------|
|----------------------|-------------------|
|--9-----7-----5-------|--9-----7-----5----|
|-----7-----7-----7--5-|-----7-----7-----7-|
|----------------------|-------------------|
|----------------------|-------------------|


 7/8                    4/4
   E  E  E  E  E  E  E    E  E  E  E  E  E  E  E
|----------------------|--------------------------|
|----------------------|--------------------------|
|-16----14----12-------|-16----------14----12-----|
|----14----14----14-12-|----14-12-14----14----14--|
|----------------------|--------------------------|
|----------------------|--------------------------|
|
|  E  E  E  E  E  E  E    E  E  E  E  E  E  E  E
|----------------------|--------------------------|
|----------------------|--------------------------|
|--9-----7-----5-------|--9-----------9-----7-----|
|-----7-----7-----7--5-|-----7--5--7-----7-----7--|
|----------------------|--------------------------|
|----------------------|--------------------------|


                                    N.C.
 7/8
   E E  E E E E E   Q  E E E E E    E E E E E E E   q  q  E E E
|-----------------|--------------||---------------|-------------|
|-----------------|--------------||---------------|-------------|
|-----------------|--------------||---------------|-------------|
|-12-9----7-------|--------------||---------------|-------------|
|------10---7-5-6-|-7--------2-3-||-4---2---0-----|-4--2--0-----|
|-----------------|----2-3-4-----||---2---2---2-0-|---------2-0-|
|
|  E E  E E E E E   Q  E E E E E    E E E E E E E   q  q  E E E
|-----------------|--------------||---------------|-------------|
|-----------------|--------------||---------------|-------------|
|-----------------|--------------||---------------|-------------|
|--5--------------|--------------||---------------|-------------|
|----7--3-5-2---2-|-0--------2-3-||-4---2---0-----|-4--2--0-----|
|-------------3---|----2-3-4-----||---2---2---2-0-|---------2-0-|


  Gtrs I, II
  E E E E E E E   E E E E E E E    E E E E E E E   q  q  E E E
|---------------|---------------||---------------|-------------|
|---------------|---------------||---------------|-------------|
|---------------|---------------||---------------|-------------|
|---------------|---------------||---------------|-------------|
|-4---2---0-----|-4-------2-3-4-||-5---3---1-----|-5--3--1-----|
|---2---2---2-0-|---2-3-4-------||---3---3---3-1-|---------3-1-|


                                 8/8
  E E E E E E E   E E E E E E E   E E E E E E E E
|---------------|---------------|-----------------||
|---------------|---------------|-----------------||
|---------------|---------------|---------2-------||
|---------------|---------------|-----4-1---4-1-0-||
|-5---3---1-----|-5-------3-4-5-|-6-3-------------||
|---3---3---3-1-|---3-4-5-------|-----------------||


 7/8
  E E E E E E E   q  q  E E E   E E E E E E E   E E E E E E E
|---------------|-------------|---------------|----------------||
|---------------|-------------|---------------|----------------||
|---------------|-------------|---------------|----------------||
|---------------|-------------|---------------|----------------||
|-4---2---0-----|-4--2--0-----|-4---2---0-----|-4-------2-3-4--||
|---2---2---2-0-|---------2-0-|---2---2---2-0-|---2-3-4--------||


  E E E E E E E   q  q  E E E   E E E E E E E   E E E E E E E
|---------------|-------------|---------------|---------------|
|---------------|-------------|---------------|---------------|
|---------------|-------------|---------------|---------------|
|---------------|-------------|---------------|---------------|
|-5---3---1-----|-5--3--1-----|-5---3---1-----|-5-------3-4-5-|
|---3---3---3-1-|---------3-1-|---3---3---3-1-|---3-4-5-------|


                  E/C A/N.C.
  Gtr I
  E E E E E E E   E E E E E  E E   E E E E E E E   E E E E E E E
|---------------|---------2------|---------------|---------------|
|---------------|-1---4-1----4-1-|-4-1-----1-----|---------------|
|---------2-----|---2------------|-----2-----2---|---------2-----|
|-----4-1---4-1-|----------------|-------4-----4-|-1---4-1---4-1-|
|-6-3-----------|----------------|---------------|---3-----------|
|---------------|----------------|---------------|---------------|
|
| Gtr II
| E E E E E E E   q   q   Q.       E E E E E E E   E E E E E E E
|---------------|----------------|---------------|---------------|
|---------------|----------------|-4-1-----1-----|---------------|
|---------2-----|-5---8----------|-----2-----2---|---------2-----|
|-----4-1---4-1-|-4---7----------|-------4-----4-|-1---4-1---4-1-|
|-6-3-----------|-3---6----------|---------------|---3-----------|
|---------------|----------------|---------------|---------------|


  E5                      N.C.(N.C.(N.C.(C/A)N.C.(G/N.C.
 4/4
  W          +W           Q.   Q.   Q    +E  E +Q   E E E E
|----------|------------|--------------|--------------------||
|----------|------------|--------------|--------------------||
|----------|------------|--------------|--------------------||
|-2--------|-(2)--------|-8----5----7--|-(7)-2-(2)--5---2---||
|-2--------|-(2)--------|-x----x----x--|-----x--------2---2-||
|-0--------|-(0)--------|-6----3----5--|-(5)-0-(0)----------||
|
| W          +W           Q.   Q.   Q    +E  E +Q   E E E E
|----------|------------|--------------|--------------------||
|----------|------------|--------------|--------------------||
|-9--------|-(9)--------|-6---------5--|-(5)----------------||
|-9--------|-(9)--------|-x----8----x--|-----5-(5)--5---2---||
|-7--------|-(7)--------|-4----x----3--|-(3)-x--------2---2-||
|-0--------|-(0)--------|------6-------|-----3-(3)----------||


   "Slip into something..."
    E5                   N.C.  F#5                            N.C.
    H     H       +H     E E E E   +W             +H          E E E E
||--------0-----|-(0)------------|--------------|-----------------------||
||o-------0-----|-(0)------------|--------------|----------------------o||
||--------------|----------------|--------------|-----------------------||
||--2----(2)----|-(2)----------4-|-(4)----------|-(4)---------5---2-----||
||o-2----(2)----|-(2)----3-2---4-|-(4)----------|-(4)-----------2---2--o||
||--0----(0)----|-(0)--------3-2-|-(2)----------|-(2)-------------------||
|
|                                           PM--------------|
|   H     H       +H     E E E E   +H.      E E    S  S E E E E E E E
||--------0-----|-(0)------------|--------------|-----------------------||
||o-------0-----|-(0)------------|--------------|----------------------o||
||--------------|----------------|--------------|-----------------------||
||--2----(2)----|-(2)----------4-|-(4)----------|-------------5---2-----||
||o-2----(2)----|-(2)----3-2---4-|-(4)----------|---------------2---2--o||
||--0----(0)----|-(0)--------3-2-|-(2)------2-2-|--2--2-2-2-2-----------||


  E5 C#/A# A#/G   C/A E5 N.C.  F#5                            N.C.
  Q   Q.   Q.      Q  Q  E E E E   +W             +H          E E E E
|---------------|----------------|--------------|---------------------|
|---------------|----------------|--------------|---------------------|
|---------------|----------------|--------------|---------------------|
|---------------|--------------4-|-(4)----------|-(4)---------5---2---|
|-2---8----5----|--7--2--3-2---4-|-(4)----------|-(4)-----------2---2-|
|-0---6----3----|--5--0------3-2-|-(2)----------|-(2)-----------------|
|
|                                           PM--------------|
| Q   Q.   Q.      Q  Q  E E E E   +H.      E E    S  S E E E E E E E
|---------------|----------------|--------------|---------------------|
|---------------|----------------|--------------|---------------------|
|---------------|----------------|--------------|---------------------|
|-2--11----8----|-10-----------4-|-(4)----------|-------------5---2---|
|-2---x----x----|--x--2--3-2---4-|-(4)----------|---------------2---2-|
|-0---9----6----|--8--0------3-2-|-(2)------2-2-|--2--2-2-2-2---------|


  E5                   N.C.  F#5                           A#/G
  H     H       +H     E E E E   E E E E Q  E E   E E Q  E Q.
|-------0-----|-(0)------------|----------------|----------------|
|-------0-----|-(0)------------|----------------|----------------|
|-------------|----------------|----------------|----------------|
|-2----(2)----|-(2)----------4-|---4---4------4-|---4------5-----|
|-2----(2)----|-(2)----3-2---4-|---4---4------4-|---4------5-----|
|-0----(0)----|-(0)--------3-2-|---2---2------2-|---2------3-----|
|
| H     H       +H     E E E E   E E E E Q  E E   E E Q  E Q.
|-------0-----|-(0)------------|----------------|----------------|
|-------0-----|-(0)------------|----------------|----------------|
|-------------|----------------|----------------|----------------|
|-2----(2)----|-(2)----------4-|---4---4------4-|---4------8-----|
|-2----(2)----|-(2)----3-2---4-|---4---4------4-|---4------x-----|
|-0----(0)----|-(0)--------3-2-|---2---2------2-|---2------6-----|


  E5
  Gtrs I, II
             PM
  W          q  Q  H
|----------|------------||
|----------|------------||
|----------|------------||
|-2--------|------------||
|-2--------|-2----------||
|-0--------|-0----------||


   "Concerned about..."
    F#E5    F#5   G5        F#E5    F#5   G5    E5
                                                PM
    E E +E  E +E  E +E  E   E E +E  E +E  E +E  E
||------------------------|-----------------------|
||o-----------------------|-----------------------|
||------------------------|-----------------------|
||--4-2-(2)-4-(4)-5-(5)-5-|-4-2-(2)-4-(4)-5-(5)---|
||o-4-2-(2)-4-(4)-5-(5)-5-|-4-2-(2)-4-(4)-5-(5)---|
||--2-0-(0)-2-(2)-3-(3)-3-|-2-0-(0)-2-(2)-3-(3)-0-|


  F#5F5      E5D5C#5   E5  E5F5      E5F5
             PM        PM            PM------|
   E  E  +E  E E E +E  E   E  E  +E  E E E E E
|------------------------|----------------------||
|------------------------|---------------------o||
|------------------------|----------------------||
|-11-10-(10)---7-6-(6)---|-9-10-(10)------------||
|--9--8--(8)---5-4-(4)---|-7--8--(8)-2-3-3-3-3-o||
|--9--8--(8)-0-5-4-(4)-0-|-7--8--(8)-0-1-1-1-1--||


       F#E5    F#5     G5      F#E5    F#5
  H    E E +E  E   +E  E +E  E E E +E  E
|----------------|-----------------------|
|----------------|-----------------------|
|----------------|-----------------------|
|-3----4-2-(2)-4-|-(4)-5-(5)-5-4-2-(2)-4-|
|-3----4-2-(2)-4-|-(4)-5-(5)-5-4-2-(2)-4-|
|-1----2-0-(0)-2-|-(2)-3-(3)-3-2-0-(0)-2-|


      G5    E5F#5F5      E5  D5C#5   E5E5F5      E5  F5
                                                    2/4
            PM           PM          PM          PM------|
                                                     |-3-|
  +E  E +E  E  E  E  +E  E   E E +E  E E  E  +E  E   Q Q Q
|--------------------------|-----------------------|-------|
|--------------------------|-----------------------|-------|
|--------------------------|-----------------------|-------|
|-(4)-5-(5)---11-10-(10)---|-7-6-(6)---9-10-(10)---|-------|
|-(4)-5-(5)----9--8--(8)---|-5-4-(4)---7--8--(8)-2-|-3-3-3-|
|-(2)-3-(3)-0--9--8--(8)-0-|-5-4-(4)-0-7--8--(8)-0-|-1-1-1-|


  F#E5    F#5   G5        F#E5    F#5   G5    E5
 4/4
                                              PM
  E E +E  E +E  E +E  E   E E +E  E +E  E +E  E
|-----------------------|-----------------------|
|-----------------------|-----------------------|
|-----------------------|-----------------------|
|-4-2-(2)-4-(4)-5-(5)-5-|-4-2-(2)-4-(4)-5-(5)---|
|-4-2-(2)-4-(4)-5-(5)-5-|-4-2-(2)-4-(4)-5-(5)---|
|-2-0-(0)-2-(2)-3-(3)-3-|-2-0-(0)-2-(2)-3-(3)-0-|


  F#5F5      E5D5C#5   E5    F5
                          2/4
             PM        PM
   E  E  +E  E E E +E  E   E  E  +E  E
|------------------------|-------------|
|------------------------|-------------|
|------------------------|-------------|
|-11-10-(10)---7-6-(6)---|-9-10-(10)-3-|
|--9--8--(8)---5-4-(4)-2-|-7--8--(8)-3-|
|--9--8--(8)-0-5-4-(4)-0-|-7--8--(8)-1-|


                                          Q=270
  E5                          D#C#5   D5D#5 F#5F5
 4/4                         2/4           4/4
  PM----------------------|
  |-3-| |-3-|   |-3-| |-3-|   |3|
  Q Q Q Q Q Q   Q Q Q Q Q Q   E S +E  E E    E  E  +q   H
|-------------|-------------|-------------|------------------||
|-------------|-------------|-------------|------------------||
|-------------|-------------|-------------|------------------||
|-------------|-------------|-8-6-(6)-7-8-|-11-10-(10)-------||
|-2-2-2-2-2-2-|-2-2-2-2-2-2-|-6-4-(4)-5-6-|--9--8--(8)-------||
|-0-0-0-0-0-0-|-0-0-0-0-0-0-|-6-4-(4)-5-6-|--9--8--(8)-------||


   "No judgement towards..."
    N.C.
    PM-----------------------------------------------------------------|
    E E E E E E E E   E E E E E E Q    E E E E E E E E   E E E E S S E Q
||------------------|----------------|-----------------|-------------------|
||o-----------------|----------------|-----------------|-------------------|
||------------------|----------------|-----------------|-------------------|
||------------------|----------------|-----------------|-------------------|
||o-----4-5---4-3---|-----4-5---4-3--|-----4-5---4-3---|-----4-5-----------|
||--2-3-----3-----4-|-2-3-----3------|-2-3-----3-----4-|-2-3-----2-2-2-6---|


  PM----------------------------------------------------------------|
  E E E E E E E E   E E E E E E E E   E E E E E E E E   E E E E E E Q
|-----------------|-----------------|-----------------|------------------||
|-----------------|-----------------|-----------------|-----------------o||
|-----------------|-----------------|-----------------|------------------||
|-----------------|-----------------|-----------------|------------------||
|-----4-5---4-3---|-----4-5---4-3---|-5-------------4-|-------1---------o||
|-2-3-----3-----4-|-2-3-----3-----4-|---4-3-2-3-4-5---|-4-3-2---3-2-1----||


  F#F5  F#5 G5  C5  B5    F/B
  E E E E E E E E   q  Q  H
|-----------------|------------||
|-----------------|------------||
|-----------------|-------4----||
|---------------5-|-4-----3----||
|-4-3---4---5---3-|-2-----2----||
|-2-1---2---3-----|------------||


   "God damn television..."
    N.C.
    PM-------------------------|      PM-------------------------|
    E E E E Q  E E   E E E E E E Q    E E E E Q  E E   E E E E E E Q
||-----------------|----------------|----------------|-----------------||
||o----------------|----------------|----------------|----------------o||
||-----------------|----------------|----------------|-----------------||
||-----------------|----------------|----------------|-----------------||
||o-----3-6--------|-3-6-----2-5----|-----3-6--------|-3-6-----2-5----o||
||--2-3--------2-3-|-----2-3--------|-2-3--------2-3-|-----2-3---------||


  Gtr I
  PM-------------------------|      PM-------------------------|
  E E E E Q  E E   E E E E E E Q    E E E E Q  E E   E E E E E E Q
|----------------|----------------|----------------|-----------------|
|----------------|----------------|----------------|-----------------|
|----------------|----------------|----------------|-----------------|
|----------------|----------------|----------------|-----------------|
|-----3-6--------|-3-6-----2-5----|-----3-6--------|-3-6-----2-5-----|
|-2-3--------2-3-|-----2-3--------|-2-3--------2-3-|-----2-3---------|
|
| Gtr II
| PM----|    PM--------------|      PM----|    PM--------------|
| E E E E Q  E E   E E E E E E Q    E E E E Q  E E   E E E E E E Q
|----------------|----------------|----------------|-----------------|
|----------------|----------------|----------------|-----------------|
|----------------|----------------|----------------|-----------------|
|----------------|----------------|----------------|-----------------|
|-----6-9--------|-6-9-----5-8----|-----6-9--------|-6-9-----5-8-----|
|-5-6--------5-6-|-----5-6--------|-5-6--------5-6-|-----5-6---------|


  PM-------------------------|
  E E E E Q  E E   E E E E E E Q
|----------------|----------------|
|----------------|----------------|
|----------------|----------------|
|----------------|----------------|
|-----3-6--------|-3-6-----2-5----|
|-2-3--------2-3-|-----2-3--------|
|
| PM----|    PM--------------|
| E E E E Q  E E   E E E E E E Q
|----------------|----------------|
|----------------|----------------|
|----------------|----------------|
|----------------|----------------|
|-----6-9--------|-6-9-----5-8----|
|-5-6--------5-6-|-----5-6--------|


  F5
                           3/4
  PM|       PM|       PM|               PM|
  S E +E  E S E +E  E S S   +E  +S  S S S E +E  E
|-------------------------|-----------------------||
|-------------------------|-----------------------||
|-------------------------|-----------------------||
|-------------------------|-----------------------||
|-1-1-(1)---1-1-(1)---1-1-|-(1)-(1)-----1-1-(1)---||
|-1-1-(1)---1-1-(1)---1-1-|-(1)-(1)-----1-1-(1)---||
|
| PM|       PM|       PM|               PM|
| S E +E  E S E +E  E S S   +E  +S  S S S E +E  E
|-------------------------|-----------------------||
|-------------------------|-----------------------||
|-------------------------|-----------------------||
|-------------------------|-----------------------||
|-3-3-(3)---3-3-(3)---3-3-|-(3)-(3)-----3-3-(3)---||
|-1-1-(1)---1-1-(1)---1-1-|-(1)-(1)-----1-1-(1)---||


   "Groups of difference..."
    N.C.
   4/4
    Gtrs I, II
    PM----|    PM------|    PM--------------|    PM|
    E E E E Q  E E   E E Q  E E E E   E E E E Q  E E
||-----------------|----------------|----------------|
||o----------------|----------------|----------------|
||-----------------|----------------|----------------|
||-----------------|----------------|----------------|
||o----------------|----------------|----------------|
||--3-0-2-0----3-0-|-2-1----3-0-2-0-|-3-0-2-0----3-0-|


                   Gb5               F#b5
  PM|
  E E Q  E E E E   Q  E E +H         Q  E E +H
|----------------|-----------------|------------------||
|----------------|-----------------|-----------------o||
|----------------|-----------------|------------------||
|------------4h7-|-5--x-5-(5)------|-4--x-4-(4)-------||
|--------3h6-----|-4--x-4-(4)------|-3--x-3-(3)------o||
|-2-1------------|-3--x-3-(3)------|-2--x-2-(2)-------||
|
| Gtr II
| PM|
| E E Q  E E E E   Q  E E  E E E E   Q  E E  E E E E
|----------------|-----------------|------------------||
|----------------|-----------------|-----------------o||
|----------------|-----------------|------------------||
|------------4h7-|-5--x-5------4h7-|-4--x-4------4h7--||
|--------3h6-----|-4--x-4--3h6-----|-3--x-3--3h6-----o||
|-2-1------------|-3--x-3----------|-2--x-2-----------||


    N.C.
    Gtrs I, II
    E E Q  Q  Q    Q  Q  E E E E   E E Q  Q  Q    Q  Q  E E E E  4x
||---------------|---------------|--------------|----------------||
||o--------------|---------------|--------------|---------------o||
||---------------|---------------|--------------|----------------||
||---------4-----|---------------|--------4-----|----------------||
||o-----------4--|-5---------4-6-|-----------4--|-5---------4-6-o||
||--0-1-2--------|----6--2-3-----|-0-1-2--------|----6--2-3------||
|
|   E E Q  Q  Q    Q  Q  E E E E   E E Q  Q  Q    Q  Q  E E E E  4x
||---------------|---------------|--------------|----------------||
||o--------------|---------------|--------------|---------------o||
||---------------|---------------|--------------|----------------||
||------------3--|-----------5-8-|-----------3--|-----------5-8--||
||o--------1-----|-1-----5-6-----|--------1-----|-1-----5-6-----o||
||--0-1-2--------|----2----------|-0-1-2--------|----2-----------||


  G#b5            F#b5            Fb5
  Gtrs I, II
                                  PM   PM|
  Q  E E +H       Q  E E +H       Q  E E +Q   Q
|---------------|---------------|----------------||
|---------------|---------------|----------------||
|---------------|---------------|----------------||
|-6----6-(6)----|-4----4-(4)----|-3----3-(3)-----||
|-5----5-(5)----|-3----3-(3)----|-2----2-(2)-----||
|-4----4-(4)----|-2----2-(2)----|-1----1-(1)-----||


   "This is human life at its..."
    E5
   6/4
    PM-----|              PM-----|
    Q.   E +Q   H.        Q.   E +Q   H.
||----------------------|---------------------|
||o---------------------|---------------------|
||----------------------|---------------------|
||----------------------|---------------------|
||o-2----2-(2)----------|-2----2-(2)----------|
||--0----0-(0)----------|-0----0-(0)----------|


                                    Fb5
  PM-----|              PM-----------------|
  Q.   E +Q   H.        Q.   E +Q   Q.   E +Q
|---------------------|--------------------------||
|---------------------|-------------------------o||
|---------------------|--------------------------||
|---------------------|-------------3----3-(3)---||
|-2----2-(2)----------|-2----2-(2)--2----2-(2)--o||
|-0----0-(0)----------|-0----0-(0)--1----1-(1)---||


  G5
  PM-----|              PM-----|
  Q.   E +Q   H.        Q.   E +Q   H.
|---------------------|---------------------|
|---------------------|---------------------|
|---------------------|---------------------|
|---------------------|---------------------|
|-5----5-(5)----------|-5----5-(5)----------|
|-3----3-(3)----------|-3----3-(3)----------|


                                    G#5
  PM-----|              PM-----------------|
  Q.   E +Q   H.        Q.   E +Q   Q.   E +Q
|---------------------|---------------------------|
|---------------------|---------------------------|
|---------------------|---------------------------|
|---------------------|-------------6----6-(6)----|
|-5----5-(5)----------|-5----5-(5)--6----6-(6)----|
|-3----3-(3)----------|-3----3-(3)--4----4-(4)----|


  E5
  PM-------|
  Q.     E +Q     H.
|--------------------------------|
|--------------------------------|
|--------------------------------|
|--------------------------------|
|-2------2-(2)-------------------|
|-0------0-(0)-------------------|
|
| Gtr III
| PM-----|        PM-|       PM---
| E  E E E  E   E E  E  E  E E E
|--------------------------------|
|----------11--11------11-11-----|
|------9-9--------9--9-------9-9-|
|-8--8---------------------------|
|--------------------------------|
|--------------------------------|


  PM-------|                       PM-------|
  Q.     E +Q     H.               Q.     E +Q     H.
|--------------------------------|--------------------------------|
|--------------------------------|--------------------------------|
|--------------------------------|--------------------------------|
|--------------------------------|--------------------------------|
|-2------2-(2)-------------------|-2------2-(2)-------------------|
|-0------0-(0)-------------------|-0------0-(0)-------------------|
|
|--------|        PM-|       PM-----------|        PM-|       PM|
| E  E E E  E   E E  E  E  E E E   E  E E E  E   E E  E  E  E E E
|--------------------------------|--------------------------------|
|----------11--11------11-11-----|----------11--11------11-11-----|
|------9-9--------9--9-------9-9-|------9-9--------9--9-------9-9-|
|-8--8---------------------------|-8--8---------------------------|
|--------------------------------|--------------------------------|
|--------------------------------|--------------------------------|


  Q=200
  B5            G5              F5           E5
   Q       E    E    +E     E   Q       E    E   +E     E
|------------------------------------------------------------|
|------------------------------------------------------------|
|------------------------------------------------------------|
|--9------------5----(5)--------3------------2---(2)---------|
|--9------------5----(5)--------3------------2---(2)---------|
|--7------------3----(3)--------1------------0---(0)---------|
|
|  |-------5-------|  |-------5-------| |--------5---------|
|  E  E  E    E    E  E   E   E    E  E E  E   E      E    E
|------------------------------------------------------------|
|------------------------------------------------------------|
|-14-13-10---13---10--9--10---9------------------------------|
|---------------------------------12-10-9-10---9-------------|
|----------------------------------------------------11---12-|
|------------------------------------------------------------|


  G#5              N.C.
 3/4
  Q         +E     E  E E
|-------------------------||
|-------------------------||
|-------------------------||
|-6---------(6)----9------||
|-6---------(6)------10-7-||
|-4---------(4)-----------||
|
| |-----5:3------|
| E  E E  E      E E  E E
|-------------------------||
|-------------------------||
|-------------------------||
|-9-10-9-----------9------||
|--------12-----11---10-7-||
|-------------------------||


  Q=180
  A5N.C.
 7/8
  Gtr I
  PM|   PM          PM|   PM          PM|   PM
  E E E E  E  E E   E E E E  E  E E   E E E E  E  E E
|-----------------|-----------------|-----------------|
|-----------------|-----------------|-----------------|
|-----------------|-----------------|-----------------|
|-----9---10------|-----9---10------|-----9---10------|
|-0-7---7----10-7-|-0-7---7----10-7-|-0-7---7----10-7-|
|-----------------|-----------------|-----------------|
|
| Gtr II
|                   PM|   PM          PM|   PM
| E Q   H           E E E E  E  E E   E E E E  E  E E
|-----------------|-----------------|-----------------|
|-----------------|-----------------|-----------------|
|-2---------------|-----------------|-----------------|
|-2---------------|-----9---10------|-----9---10------|
|-0---------------|-0-7---7----10-7-|-0-7---7----10-7-|
|-----------------|-----------------|-----------------|


  Gtrs I, II
  PM|   PM          PM|   PM          PM|   PM
  E E E E  E  E E   E E E E  E  E E   E E E E  E  E E
|-----------------|-----------------|-----------------|
|-----------------|-----------------|-----------------|
|-----------------|-----------------|-----------------|
|-----9---10------|-----9---10------|-----9---10------|
|-0-7---7----10-7-|-0-7---7----10-7-|-0-7---7----10-7-|
|-----------------|-----------------|-----------------|


                   4/4
  PM|   PM
  E E E E  E  E E   E E E E E E E E
|-----------------|-----------------|
|-----------------|-----------------|
|-----------------|-7---------0-----|
|-----9---10------|---7-----4-------|
|-0-7---7----10-7-|-----9-5-----3---|
|-----------------|---------------1-|


                         7/8
  +E  E E  E  +E  E E E   E E E E  E E  E
|-----------------------|------------------||
|-----------------------|------------------||
|---------------------7-|-9----------------||
|-------7-10-(10)-9-----|---7---7-10-9-----||
|-----7-------------7---|-----7--------10--||
|-(1)-------------------|------------------||


 Pre-Chorus
  Q=100
  A5
 4/4
                                       >
   W                                  +W
|-----------------------------------|------------------------------------|
|-----------------------------------|------------------------------------|
|-----------------------------------|------------------------------------|
|--7--------------------------------|-(7)--------------------------------|
|--7--------------------------------|-(7)--------------------------------|
|--5--------------------------------|-(5)--------------------------------|
|
| Gtr IV
|  E  +S   S  +E   E  +S   S  +Q.      E   +S   S  +E   E  +S   S  +Q.
|-----------------15-(15)-19-(19)---|--------------------------15-(15)---|
|-12-(12)-13-(13)-------------------|------------------13-(13)-----------|
|-----------------------------------|----------14-(14)-------------------|
|-----------------------------------|------------------------------------|
|-----------------------------------|------------------------------------|
|-----------------------------------|-13--(13)---------------------------|


  +W                                   +H                    H
|------------------------------------|-------------------------------------|
|------------------------------------|-------------------------------------|
|------------------------------------|-------------------------------------|
|-(7)--------------------------------|-(7)---------------------------------|
|-(7)--------------------------------|-(7)---------------------------------|
|-(5)--------------------------------|-(5)---------------------------------|
|
|  E   +S   S  +E   E  +S   S  +Q.      E   +S   S  +E   E  +S   S  +Q.
|--------------------------19-(19)---|--------------------------20-(20)----|
|------------------15-(15)-----------|-------------------------------------|
|----------16-(16)-------------------|----------16-(16)-17-(17)------------|
|------------------------------------|-------------------------------------|
|-10--(10)---------------------------|-12--(12)----------------------------|
|------------------------------------|-------------------------------------|


  Am
  Gtr V
   W                                  +W
|-----------------------------------|------------------------------------|
|-----------------------------------|------------------------------------|
|-^5--------------------------------|-(5)--------------------------------|
|-^7--------------------------------|-(7)--------------------------------|
|-^7--------------------------------|-(7)--------------------------------|
|-^5--------------------------------|-(5)--------------------------------|
|
|  E  +S   S  +E   E  +S   S  +Q.      E   +S   S  +E   E  +S   S  +Q.
|-----------------15-(15)-19-(19)---|--------------------------15-(15)---|
|-12-(12)-13-(13)-------------------|------------------13-(13)-----------|
|-----------------------------------|----------14-(14)-------------------|
|-----------------------------------|------------------------------------|
|-----------------------------------|------------------------------------|
|-----------------------------------|-13--(13)---------------------------|


  G                                   Am
   W                                   W
|-----------------------------------|------------------------------------||
|-----------------------------------|------------------------------------||
|-^4--------------------------------|-^5---------------------------------||
|-^5--------------------------------|-^7---------------------------------||
|-^5--------------------------------|-^7---------------------------------||
|-^3--------------------------------|-^5---------------------------------||
|
|  E  +S   S  +E   E  +S   S  +Q.      E  +S   S  +E   E  +S   S  +Q.
|-------------------------19-(19)---|-------------------------20-(20)----||
|-----------------15-(15)-----------|------------------------------------||
|---------16-(16)-------------------|---------16-(16)-17-(17)------------||
|-----------------------------------|------------------------------------||
|-10-(10)---------------------------|-12-(12)----------------------------||
|-----------------------------------|------------------------------------||


   1st Chorus
    Am                                   F
     E S S   S  S  E   S  S S S  E S S     E   S S   S  S E S S S S E S S
||-------------------------------------|----------------------------------|
||o------------------------------------|----------------------------------|
||--^5-5-5---5--5--5---5--5-5-5--5-5-5-|-^-2---2-2---2--2-2-2-2-2-2-2-2-2-|
||--^7-7-7---7--7--7---7--7-7-7--7-7-7-|-^-3---3-3---3--3-3-3-3-3-3-3-3-3-|
||o-^7-7-7---7--7--7---7--7-7-7--7-7-7-|-^-3---3-3---3--3-3-3-3-3-3-3-3-3-|
||--^5-5-5---5--5--5---5--5-5-5--5-5-5-|-^-1---1-1---1--1-1-1-1-1-1-1-1-1-|
|
|    W                                     W
||-------------------------------------|----------------------------------|
||o------------------------------------|----------------------------------|
||---5---------------------------------|---2------------------------------|
||---7---------------------------------|---3------------------------------|
||o--7---------------------------------|---3------------------------------|
||---5---------------------------------|---1------------------------------|
|
|   Gtr VI
|    Q      +E     E  +Q         Q        +E   E    +H.
||--20-----(20)---19-(19)--------------|----------------------------------|
||o-----------------------------20-----|-(20)-----------------------------|
||-------------------------------------|------21---(21)-------------------|
||-------------------------------------|----------------------------------|
||o------------------------------------|----------------------------------|
||-------------------------------------|----------------------------------|


  G                                   Am
   E S S   S  S  E   S  S S S E S S     E  S S S S E S S S S E S S
|-----------------------------------|----------------------------------||
|-----------------------------------|---------------------------------o||
|-^4-4-4---4--4--4---4--4-4-4-4-4-4-|-^-5--5-5-5-5-5-5-5-5-5-5-5-5-----||
|-^5-5-5---5--5--5---5--5-5-5-5-5-5-|-^-7--7-7-7-7-7-7-7-7-7-7-7-7-----||
|-^5-5-5---5--5--5---5--5-5-5-5-5-5-|-^-7--7-7-7-7-7-7-7-7-7-7-7-7----o||
|-^3-3-3---3--3--3---3--3-3-3-3-3-3-|-^-5--5-5-5-5-5-5-5-5-5-5-5-5-----||
|
|  W                                    W
|-----------------------------------|----------------------------------||
|-----------------------------------|---------------------------------o||
|--4--------------------------------|---5------------------------------||
|--5--------------------------------|---7------------------------------||
|--5--------------------------------|---7-----------------------------o||
|--3--------------------------------|---5------------------------------||
|
|  Q      +E     E  +H                 +W
|-----------------------------------|----------------------------------||
|-15-----(15)-----------------------|---------------------------------o||
|---------------17-(17)-------------|-(17)-----------------------------||
|-----------------------------------|----------------------------------||
|-----------------------------------|---------------------------------o||
|-----------------------------------|----------------------------------||


                                       F
   E S S   S  S  E   S  S S S  E S S     E   S S   S  S E  S  S S S E S S
|------------------------------------|------------------------------------|
|------------------------------------|------------------------------------|
|-^5-5-5---5--5--5---5--5-5-5--5-5-5-|-^-2---2-2---2--2-2--2--2-2-2-2-2-2-|
|-^7-7-7---7--7--7---7--7-7-7--7-7-7-|-^-3---3-3---3--3-3--3--3-3-3-3-3-3-|
|-^7-7-7---7--7--7---7--7-7-7--7-7-7-|-^-3---3-3---3--3-3--3--3-3-3-3-3-3-|
|-^5-5-5---5--5--5---5--5-5-5--5-5-5-|-^-1---1-1---1--1-1--1--1-1-1-1-1-1-|
|
| Gtr II
|  H                +Q         Q        +E   E    +E    E +Q        Q
|------------------------------------|-------5----(5)---0-(0)-------------|
|--5----------------(5)--------8-----|--(8)-------------------------------|
|------------------------------------|------------------------------------|
|------------------------------------|------------------------------------|
|------------------------------------|------------------------------------|
|------------------------------------|------------------------------------|
|
|  Q      +E     E  +Q         Q        +E   E    +H.
|-20-----(20)---19-(19)--------------|------------------------------------|
|-----------------------------20-----|-(20)-------------------------------|
|------------------------------------|------21---(21)---------------------|
|------------------------------------|------------------------------------|
|------------------------------------|------------------------------------|
|------------------------------------|------------------------------------|


  G                                     Am
   E S S   S  S  E   S  S S S  E  S S     E  S S  S  S E  S  S S S E S S
|-------------------------------------|-------------------------------------|
|-------------------------------------|-------------------------------------|
|-^4-4-4---4--4--4---4--4-4-4--4--4-4-|-^-5--5-5--5--5-5--5--5-5-5-5-5-5----|
|-^5-5-5---5--5--5---5--5-5-5--5--5-5-|-^-7--7-7--7--7-7--7--7-7-7-7-7-7----|
|-^5-5-5---5--5--5---5--5-5-5--5--5-5-|-^-7--7-7--7--7-7--7--7-7-7-7-7-7----|
|-^3-3-3---3--3--3---3--3-3-3--3--3-3-|-^-5--5-5--5--5-5--5--5-5-5-5-5-5----|
|
|  E E    +E     E  +E    E   +E  E      +E  E   +Q      +Q        Q
|--7-7----(7)---10-(10)---8---(8)-7---|--(7)--------------------------------|
|-------------------------------------|------8---(8)-----(8)----------------|
|-------------------------------------|-------------------------------------|
|-------------------------------------|-------------------------------------|
|-------------------------------------|-------------------------------------|
|-------------------------------------|-------------------------------------|
|
|  Q      +E     E  +H                   +W
|-------------------------------------|-------------------------------------|
|-15-----(15)-------------------------|-------------------------------------|
|---------------17-(17)---------------|-(17)--------------------------------|
|-------------------------------------|-------------------------------------|
|-------------------------------------|-------------------------------------|
|-------------------------------------|-------------------------------------|


                                       F
   E S S   S  S  E   S  S S S  E S S     E   S S   S  S E  S  S S S E S S
|------------------------------------|------------------------------------|
|------------------------------------|------------------------------------|
|-^5-5-5---5--5--5---5--5-5-5--5-5-5-|-^-2---2-2---2--2-2--2--2-2-2-2-2-2-|
|-^7-7-7---7--7--7---7--7-7-7--7-7-7-|-^-3---3-3---3--3-3--3--3-3-3-3-3-3-|
|-^7-7-7---7--7--7---7--7-7-7--7-7-7-|-^-3---3-3---3--3-3--3--3-3-3-3-3-3-|
|-^5-5-5---5--5--5---5--5-5-5--5-5-5-|-^-1---1-1---1--1-1--1--1-1-1-1-1-1-|
|
|  H                +Q         Q        +E   E    +E    E +Q        Q
|------------------------------------|-------5----(5)---0-(0)-------------|
|--5----------------(5)--------8-----|--(8)-------------------------------|
|------------------------------------|------------------------------------|
|------------------------------------|------------------------------------|
|------------------------------------|------------------------------------|
|------------------------------------|------------------------------------|
|
|  Q      +E     E  +Q         Q        +E   E    +H.
|-20-----(20)---19-(19)--------------|------------------------------------|
|-----------------------------20-----|-(20)-------------------------------|
|------------------------------------|------21---(21)---------------------|
|------------------------------------|------------------------------------|
|------------------------------------|------------------------------------|
|------------------------------------|------------------------------------|


  G                          Am
   W                           W
|--------------------------|-----------------------||
|--------------------------|-----------------------||
|-^4-----------------------|-^-5-------------------||
|-^5-----------------------|-^-7-------------------||
|-^5-----------------------|-^-7-------------------||
|-^3-----------------------|-^-5-------------------||
|
|  E E +E   E  +E  E +E  E    +E  E +Q   +Q   Q
|--7-7-(7)-10-(10)-8-(8)-7-|--(7)------------------||
|--------------------------|------8-(8)--(8)-------||
|--------------------------|-----------------------||
|--------------------------|-----------------------||
|--------------------------|-----------------------||
|--------------------------|-----------------------||
|
|  W                          +W
|--------------------------|-----------------------||
|-15-----------------------|-(15)------------------||
|--------------------------|-----------------------||
|--------------------------|-----------------------||
|--------------------------|-----------------------||
|--------------------------|-----------------------||


 1st Guitar Solo
  Am                                       F
  Gtr VI
   E  S  S  S  S  S  S  +Q    S  S  S  S    S  S  E  E  S  S S  S  +E   +Q
|----------------------------------------|-----------------------------------|
|----------------------------12h13-12----|-----------------------------------|
|----------12----12h14-(14)-----------12-|----------12S14--------------------|
|----12h14----14-------------------------|-14-12s10-------12---10-(10)-(10)--|
|----------------------------------------|-----------------------------------|
|----------------------------------------|-----------------------------------|
|
| Gtrs IV, V
|  W                                        W
|----------------------------------------|-----------------------------------|
|----------------------------------------|-----------------------------------|
|-^5-------------------------------------|-^2--------------------------------|
|-^7-------------------------------------|-^3--------------------------------|
|-^7-------------------------------------|-^3--------------------------------|
|-^5-------------------------------------|-^1--------------------------------|


  G
   E  T  T  S  S  S  S  S  S  S  S  S  S  S  S  S
|-------------------------------------------------|
|----------------12-13-12-------------------------|
|----------12-14----------14-12-------------------|
|-------12----------------------15-14-12-------12s|
|----14----------------------------------14-15----|
|-------------------------------------------------|
|
|  W
|-------------------------------------------------|
|-------------------------------------------------|
|-^4----------------------------------------------|
|-^5----------------------------------------------|
|-^5----------------------------------------------|
|-^3----------------------------------------------|


  Am
   Q   +E   E  +E   S  S  +E   e
|--------------------------------|
|--------------------------------|
|----------14-(14)-14h16-(16)-16-|
|-14--(14)-----------------------|
|--------------------------------|
|--------------------------------|
|
|  W
|--------------------------------|
|--------------------------------|
|-^5-----------------------------|
|-^7-----------------------------|
|-^7-----------------------------|
|-^5-----------------------------|


   S  S  +E    e  S  S  +Q    +E   T  T  S
|------------------------------------------|
|------------------------------------------|
|-16h17-(17)\-12-12h14-(14)--(14)-------12-|
|------------------------------------14----|
|---------------------------------15-------|
|------------------------------------------|
|
|  W
|------------------------------------------|
|------------------------------------------|
|-^5---------------------------------------|
|-^7---------------------------------------|
|-^7---------------------------------------|
|-^5---------------------------------------|


  F
   E  +S   S  +e   E  +E    e  S  S  +E
|----------------------------------------|
|----------------------------------------|
|----------------------------------------|
|-15-(15)-14-(14)------------------------|
|-----------------15-(15)\-10-10-12-(12)-|
|----------------------------------------|
|
|  W
|----------------------------------------|
|----------------------------------------|
|-^2-------------------------------------|
|-^3-------------------------------------|
|-^3-------------------------------------|
|-^1-------------------------------------|


  G
   +E   S  S  S  S  S  S  S  S  S  S  T  T  S  S  S
|---------------------------------------------------|
|------------------------------------15h16p15-------|
|------------------------------14h17----------14-17-|
|---------------------12-14s17----------------------|
|-(12)-------10-12s15-------------------------------|
|------10h13----------------------------------------|
|
|   W
|---------------------------------------------------|
|---------------------------------------------------|
|-^-4-----------------------------------------------|
|-^-5-----------------------------------------------|
|-^-5-----------------------------------------------|
|-^-3-----------------------------------------------|


  Am
    E  S  S  S  S  S  S  +H
|-------------------------------|
|-------------------------------|
|-/16---------------------------|
|-----17----------12h14-(14)----|
|--------17-15S12---------------|
|-------------------------------|
|
|   W
|-------------------------------|
|-------------------------------|
|-^-5---------------------------|
|-^-7---------------------------|
|-^-7---------------------------|
|-^-5---------------------------|


   Q   S     +S   +E       +Q    Q
|-----15b17-(15)-(15)b17==(15)r-----|
|-----------------------------------|
|-----------------------------------|
|-----------------------------------|
|-----------------------------------|
|-----------------------------------|
|
|  W
|-----------------------------------|
|-----------------------------------|
|-^5--------------------------------|
|-^7--------------------------------|
|-^7--------------------------------|
|-^5--------------------------------|


  F
   S      +S   S  S  S  +S      +S   S  +S   S S  T  T  +Q
|------------------------------------------------------------|
|-17pb18-(17)p15s13-15-(15)b17-(15)--------------------------|
|-----------------------------------12-(12)-14---14s16-(16)--|
|------------------------------------------------------------|
|------------------------------------------------------------|
|------------------------------------------------------------|
|
|  W
|------------------------------------------------------------|
|------------------------------------------------------------|
|-^2---------------------------------------------------------|
|-^3---------------------------------------------------------|
|-^3---------------------------------------------------------|
|-^1---------------------------------------------------------|


  G
   E  S  S  S  S  S  S  S  S  S  S  S  S  S  S
|----------------------------------------------|
|----------------------------------------------|
|-------------12----14-12-16-------------------|
|----12-15-14----15----------12-14-12----------|
|-------------------------------------14-12----|
|-------------------------------------------15-|
|
|  W
|----------------------------------------------|
|----------------------------------------------|
|-^4-------------------------------------------|
|-^5-------------------------------------------|
|-^5-------------------------------------------|
|-^3-------------------------------------------|


  Am
   S  S S  S S S S S +S  S S S S S S S
|--------------------------------------|
|--------------------------------------|
|--------------------------------------|
|----------------------------------5h7-|
|------------------------------5h7-----|
|-12-10-8-10-8-7-3-5-(5)-8-5-8---------|
|
|  W
|--------------------------------------|
|--------------------------------------|
|-^5-----------------------------------|
|-^7-----------------------------------|
|-^7-----------------------------------|
|-^5-----------------------------------|


   H                  +Q          +E   e    S   S  +H                      +S   S  S  S  S S
|----------------------------------------|---------------------------------------------------|
|----------------------------------------|---------------------------------------------------|
|----------------------------------------|-------------------------------------------------9h|
|----------------------------------------|-------------------------------------------10h12---|
|-/7------------------(7)---------(7)-10-|-10h=12-(12)--------------------(12)-10h12---------|
|----------------------------------------|---------------------------------------------------|
|
| Gtr V
|  W                                       +W
|----------------------------------------|---------------------------------------------------|
|----------------------------------------|---------------------------------------------------|
|--5-------------------------------------|-(5)-----------------------------------------------|
|--7-------------------------------------|-(7)-----------------------------------------------|
|--7-------------------------------------|-(7)-----------------------------------------------|
|--5-------------------------------------|-(5)-----------------------------------------------|
|
| Gtr IV
|  E  +S   S  +E   E  +S   S  +Q.           E      +S   S  +E   E  +S   S  +Q.
|-----------------15-(15)-19-(19)--------|-----------------------------15-(15)---------------|
|-12-(12)-13-(13)------------------------|---------------------13-(13)-----------------------|
|----------------------------------------|-------------14-(14)-------------------------------|
|----------------------------------------|---------------------------------------------------|
|----------------------------------------|---------------------------------------------------|
|----------------------------------------|-13-----(13)---------------------------------------|


                                                       |-3-|
   S    S  +S   S   S   +S   S  S  +Q           E E    S   E   S   S  +Q      +H
|---------------------------------------------------|----------------------------------------||
|---------------------------------------------------|----------------------------------------||
|-12--/14-(14)--------------------------------------|----------------------------------------||
|--------------14--12--(12)s10-12-(12)---------10p9-|----------------------------------------||
|---------------------------------------------------|-10s=12---------------------------------||
|---------------------------------------------------|---------10h=12-(12)----(12)------------||
|
| +W                                                  +W
|---------------------------------------------------|----------------------------------------||
|---------------------------------------------------|----------------------------------------||
|-(5)-----------------------------------------------|-(5)------------------------------------||
|-(7)-----------------------------------------------|-(7)------------------------------------||
|-(7)-----------------------------------------------|-(7)------------------------------------||
|-(5)-----------------------------------------------|-(5)------------------------------------||
|
|  E       +S   S  +E        E     +S   S  +Q.         E      +S   S  +E   E  +S   S  +Q.
|--------------------------------------19-(19)------|-----------------------------20-(20)----||
|---------------------------15----(15)--------------|----------------------------------------||
|--------------16-(16)------------------------------|-------------16-(16)-17-(17)------------||
|---------------------------------------------------|----------------------------------------||
|-10------(10)--------------------------------------|-12-----(12)----------------------------||
|---------------------------------------------------|----------------------------------------||


   2nd Chorus
    Q=200
    A5
    Gtr III
     Q   +E   +E      +Q     Q     +Q    H       E  E
||------------------------------|---------------------|
||o-12--(12)-(12)b13-(12)-------|---------------------|
||--------------------------12--|-(12)---9------12s14-|
||------------------------------|---------------------|
||o-----------------------------|---------------------|
||------------------------------|---------------------|
|
|   Gtr I
|              PM---------|            PM--|     PM|
|    Q   +E    E       E  E  Q     +E  E E E Q   E  E
||------------------------------|---------------------|
||o-----------------------------|---------------------|
||------------------------------|---------------------|
||---7---(7)-----------------7--|--(7)-------7--------|
||o--7---(7)-----------------7--|--(7)-------7--------|
||---5---(5)---5-------5--5--5--|--(5)-5-5-5-5---5--5-|


  F5VIII
   +H           +Q     Q     +Q     H        Q
|-------------------------|-----------------------|
|---------------------12--|-(12)------------------|
|-(14)---------(14)-------|--------12-------------|
|-------------------------|-----------------10----|
|-------------------------|-----------------------|
|-------------------------|-----------------------|
|
|            PM-----|            PM---|      PM|
|   Q    +E  E   E  E  Q     +E  E  E E  Q   E E
|-------------------------|-----------------------|
|-------------------------|-----------------------|
|-------------------------|-----------------------|
|--10---(10)----------10--|-(10)--------10--------|
|---8----(8)-----------8--|--(8)---------8--------|
|---8----(8)-8---8--8--8--|--(8)-8--8-8--8---8-8--|


  G5
   H         Q    S  S  +E     +Q     H       Q
|---------------------------|---------------------|
|---------------------------|----------------12---|
|-----------12---12s14-(14)-|-(14)---10-----------|
|-12------------------------|---------------------|
|---------------------------|---------------------|
|---------------------------|---------------------|
|
|         PM---|                   PM---|     PM|
|  Q  +E  E  E E  Q            +E  E  E E Q   E E
|---------------------------|---------------------|
|---------------------------|---------------------|
|---------------------------|---------------------|
|--5--(5)---------5---------|--(5)--------5-------|
|--5--(5)---------5---------|--(5)--------5-------|
|--3--(3)-3--3-3--3---------|--(3)-3--3-3-3---3-3-|


  A5
   +Q    +Q        +Q     +Q         +Q    Q    Q    Q
|---------------------------------|------------------------||
|-(12)--(12)b13---(12)---(12)b13--|-(12)------------------o||
|---------------------------------|--------9---12--/14-----||
|---------------------------------|------------------------||
|---------------------------------|-----------------------o||
|---------------------------------|------------------------||
|
|               PM-----|                 PM--|       PM|
|   Q    +E     E   E  E   Q         +E  E E E  Q    E E
|---------------------------------|------------------------||
|---------------------------------|-----------------------o||
|---------------------------------|------------------------||
|---7----(7)---------------7------|--(7)--------7----------||
|---7----(7)---------------7------|--(7)--------7---------o||
|---5----(5)----5---5--5---5------|--(5)-5-5-5--5----5-5---||


 Interlude
  Ab5
   E  +E       +H         Q      +H.         Q
|-----------------------------|------------------|
|-12-(12)b13==(12)r------11---|-(11)-------------|
|-----------------------------|------------------|
|-----------------------------|------------------|
|-----------------------------|------------------|
|-----------------------------|------------------|
|
|               PM--|     PM|         PM|    PM|
|  Q            E   E Q   E E     Q   E E Q  E E
|-----------------------------|------------------|
|-----------------------------|------------------|
|-----------------------------|------------------|
|--6------------------6-------|---6-------6------|
|--6------------------6-------|---6-------6------|
|--4------------4---4-4---4-4-|---4---4-4-4--4-4-|


  Bb5
   Q   +E   +E      +Q     Q      +H        H
|------------------------------|-----------13-------|
|-13--(13)-(13)b15-(13)--/15---|-(15)---------------|
|------------------------------|--------------------|
|------------------------------|--------------------|
|------------------------------|--------------------|
|------------------------------|--------------------|
|
|       PM-|               PM|         PM|     PM|
|  Q    E    E       Q     E E     Q   E E  Q  E E
|------------------------------|--------------------|
|------------------------------|--------------------|
|------------------------------|--------------------|
|--8-----------------8---------|---8--------8-------|
|--8-----------------8---------|---8--------8-------|
|--6----6----6-------6-----6-6-|---6---6-6--6--6-6--|


  Ab5
   Q   +E      +E   +Q    Q      +H        +E   E  E  +E
|-----------------------------|-------------------18-(18)b20-|
|-16--(16)b18-(16)-(16)-------|------------------------------|
|------------------------15---|-(15)------(15)-17------------|
|-----------------------------|------------------------------|
|-----------------------------|------------------------------|
|-----------------------------|------------------------------|
|
| Gtr II
|  W                              W
|-----------------------------|------------------------------|
|-----------------------------|------------------------------|
|-----------------------------|------------------------------|
|-----------------------------|------------------------------|
|-----------------------------|------------------------------|
|-----------------------------|------------------------------|
|
| Gtr I
|       PM----|           PM|         PM|          PM|
|  Q    E       E    Q    E E     Q   E E   Q      E   E
|-----------------------------|------------------------------|
|-----------------------------|------------------------------|
|-----------------------------|------------------------------|
|--6-----------------6--------|---6---------6----------------|
|--6-----------------6--------|---6---------6----------------|
|--4----4-------4----4----4-4-|---4---4-4---4------4---4-----|


  F5                   G5
                        ~~~~~~~~~~~~~~~~~~~~~
   +E   E  E   E  E  E  Q     +H         +Q    E  E
|-(18)-17-15--------15-----|-------------------------||
|----------------18----18--|-(18)-------(18)--12-15--||
|-------------17-----------|-------------------------||
|--------------------------|-------------------------||
|--------------------------|-------------------------||
|--------------------------|-------------------------||
|
|   W                          H          Q    E  E
|--------------------------|-------------------------||
|--------------------------|---------------------12--||
|--------------------------|------------------12-----||
|--------------------------|-------------------------||
|--------------------------|-------------------------||
|--------------------------|-------------------------||
|
|              PM---|             PM--|
|   Q     +E   E  E  E  Q     +E  E E E   Q    E  E
|--------------------------|-------------------------||
|--------------------------|-------------------------||
|--------------------------|-------------------------||
|---3-----(3)-----------5--|--(5)---------5----5--5--||
|---3-----(3)-----------5--|--(5)---------5----5--5--||
|---1-----(1)--1--1--1--3--|--(3)-3-3-3---3----3--3--||


 Bridge
  C5
                                                   |---3---|
   Q   +E   +E      +E   E  Q     +Q     +E  E Q   E  E    E
|-12--(12)-(12)b13-(12)----12--|-(12)---(12)-----------------|
|-----------------------15-----|------------------12-13---15-|
|------------------------------|-----------------------------|
|------------------------------|-----------------------------|
|------------------------------|-----------------------------|
|------------------------------|-----------------------------|
|
|                                                  |---3---|
|  Q   +E   +E      +E   E  Q     +Q     +E  E Q   E  E    E
|------------------------------|-----------------------------|
|-13--(13)-(13)b15-(13)-12-13--|-(13)---(13)---------10---12-|
|------------------------------|------------------12---------|
|------------------------------|-----------------------------|
|------------------------------|-----------------------------|
|------------------------------|-----------------------------|
|
|            PM---------|             PM-----|     PM---|
|  Q   +E    E       E   E  Q     +E  E   E  E Q   E    E
|------------------------------|-----------------------------|
|------------------------------|-----------------------------|
|--5---(5)------------------5--|--(5)----------5-------------|
|--5---(5)------------------5--|--(5)----------5-------------|
|--3---(3)---3-------3---3--3--|--(3)-3---3--3-3---3----3----|
|------------------------------|-----------------------------|


   Q   +E   +E      +E   E  Q     +Q     H       Q
|-12--(12)-(12)b13-(12)----12--|-(12)-----------------|
|-----------------------15-----|--------15------13----|
|------------------------------|----------------------|
|------------------------------|----------------------|
|------------------------------|----------------------|
|------------------------------|----------------------|
|
|  Q   +E   +E      +E   E  Q     +Q     H       Q
|------------------------------|----------------------|
|-13--(13)-(13)b15-(13)-12-13--|-(13)---12------------|
|------------------------------|----------------14----|
|------------------------------|----------------------|
|------------------------------|----------------------|
|------------------------------|----------------------|
|
|            PM---------|             PM---|     PM|
|  Q   +E    E       E   E  Q     +E  E  E E Q   E E
|------------------------------|----------------------|
|------------------------------|----------------------|
|--5---(5)------------------5--|--(5)--------5--------|
|--5---(5)------------------5--|--(5)--------5--------|
|--3---(3)---3-------3---3--3--|--(3)-3--3-3-3---3-3--|
|------------------------------|----------------------|


  A5
   Q   +E   +E      +E   E  Q     +Q     H       Q
|------------------------------|---------------------|
|-12--(12)-(12)b13-(12)----12--|-(12)----------------|
|-----------------------14-----|---------9------14---|
|------------------------------|---------------------|
|------------------------------|---------------------|
|------------------------------|---------------------|
|
|                           ~~~~~~~~~~
|  Q   +E   +E      +E   E  Q     +Q     H       Q
|------------------------------|---------------------|
|------------------------------|--------13------13---|
|-12--(12)-(12)b14-(12)----12--|-(12)----------------|
|-----------------------15-----|---------------------|
|------------------------------|---------------------|
|------------------------------|---------------------|
|
|            PM---------|             PM---|     PM|
|  Q   +E    E       E   E  Q     +E  E  E E Q   E E
|------------------------------|---------------------|
|------------------------------|---------------------|
|------------------------------|---------------------|
|--7---(7)------------------7--|--(7)--------7-------|
|--7---(7)------------------7--|--(7)--------7-------|
|--5---(5)---5-------5---5--5--|--(5)-5--5-5-5---5-5-|


   +Q    H          Q     +Q     H        Q
|----------------------|----------------------|
|----------------------|--------15-------17---|
|-(14)--16---------17--|-(17)-----------------|
|----------------------|----------------------|
|----------------------|----------------------|
|----------------------|----------------------|
|
|  +Q    Q     Q    Q      Q     Q    Q   Q
|----------------------|----------------------|
|-(13)--15----15---10--|--10----12---12-------|
|----------------------|-----------------12---|
|----------------------|----------------------|
|----------------------|----------------------|
|----------------------|----------------------|
|
|           PM---|            PM---|      PM|
|   Q   +E  E  E E  Q     +E  E  E E  Q   E E
|----------------------|----------------------|
|----------------------|----------------------|
|----------------------|----------------------|
|---7---(7)---------7--|--(7)---------7-------|
|---7---(7)---------7--|--(7)---------7-------|
|---5---(5)-5--5-5--5--|--(5)-5--5-5--5---5-5-|


  F5
   E  +E       +Q     Q    Q     +Q      S  S  S  S  S  S  S  S  S  S  E
|-----------------------------|------------------------17h20p17----------|
|-17-(17)b18--(17)------------|---------------------18----------18----20-|
|--------------------17-------|------------------19----------------19----|
|-------------------------19--|-(19)----------19-------------------------|
|-----------------------------|------------19----------------------------|
|-----------------------------|---------20-------------------------------|
|
|  ~~
|  E  +E       +H.               +H                  H
|-----------------------------|------------------------------------------|
|-----------------------------|------------------------------------------|
|-12-(12)b14==(12)------------|-(12)r------------------------------------|
|-----------------------------|----------------------9-------------------|
|-----------------------------|------------------------------------------|
|-----------------------------|------------------------------------------|
|
|                  PM---|             PM------|                  PM---|
|  Q           +E  E  E E  Q     +E   E  E     E     Q           E     E
|-----------------------------|------------------------------------------|
|-----------------------------|------------------------------------------|
|-----------------------------|------------------------------------------|
|--3-----------(3)---------3--|--(3)-----------------3-------------------|
|--3-----------(3)---------3--|--(3)-----------------3-------------------|
|--1-----------(1)-1--1-1--1--|--(1)--1--1-----1-----1-----------1-----1-|


  G5
   E  E      +Q      +E   E  E  E    W
|---------------------------------|--------------------|
|-20------------------------------|-18-----------------|
|----19b21==(19)r---(19)-16-17-19-|--------------------|
|---------------------------------|--------------------|
|---------------------------------|--------------------|
|---------------------------------|--------------------|
|
|  H                  H              H         H
|---------------------------------|--------------------|
|---------------------------------|-13-----------------|
|--------------------14-----------|-----------16-------|
|-10------------------------------|--------------------|
|---------------------------------|--------------------|
|---------------------------------|--------------------|
|
|                 PM-----|              PM--|     PM|
|  Q         +E   E   E   E  Q      +E  E E E  Q  E E
|---------------------------------|--------------------|
|---------------------------------|--------------------|
|---------------------------------|--------------------|
|--5---------(5)-------------5----|-(5)--------5-------|
|--5---------(5)-------------5----|-(5)--------5-------|
|--3---------(3)--3---3---3--3----|-(3)-3-3-3--3--3-3--|


  A5                                          G5
                                               |--3--|  |---3----|  |---3---|  |--3--|
   H         Q    Q     +Q    Q   +Q   E  E    E  E  E  E   E    E  E  E    E  E  E  E
|--------------------|----------------------|----------------------10------------------|
|-12--------13---12--|-(12)--------------13-|-13-12-10-----10---12----13---12-10-------|
|--------------------|--------9---(9)--9----|----------12------------------------12-10-|
|--------------------|----------------------|------------------------------------------|
|--------------------|----------------------|------------------------------------------|
|--------------------|----------------------|------------------------------------------|
|
|                                              |--3--|  |---3----|  |---3---|  |--3--|
|  W                    +W                     E  E  E  E   E    E  E  E    E  E  E  E
|--------------------|----------------------|------------------------------------------|
|--------------------|----------------------|----------------------13------------------|
|--------------------|----------------------|-14-12-10-----10---12----14---12-10-------|
|--------------------|----------------------|----------14------------------------14-12-|
|-14-----------------|-(14)-----------------|------------------------------------------|
|--------------------|----------------------|------------------------------------------|
|
|         PM---|            PM--|      PM|                    PM---------|
|  Q  +E  E  E E  Q     +E  E E E  Q   E  E    Q       +E     E     E    E     Q
|--------------------|----------------------|------------------------------------------|
|--------------------|----------------------|------------------------------------------|
|--------------------|----------------------|------------------------------------------|
|--7--(7)---------7--|--(7)--------7--------|--5-------(5)---------------------5-------|
|--7--(7)---------7--|--(7)--------7--------|--5-------(5)---------------------5-------|
|--5--(5)-5--5-5--5--|--(5)-5-5-5--5---5--5-|--3-------(3)----3-----3----3-----3-------|


   |---3----|  |---3---|  |--3--|  |---3---|
   E   E    E  E  E    E  E  E  E  E  E    E
|----------------------------------------------|
|----------------------------------------------|
|----------------14---16-17-16-14--------------|
|-12--14---15-17------------------17-15---14---|
|----------------------------------------------|
|----------------------------------------------|
|
|  |---3----|  |---3---|  |--3--|  |---3---|
|  E   E    E  E  E    E  E  E  E  E  E    E
|----------------------------------------------|
|----------------------------------------------|
|---------------------12-14-12-----------------|
|----------12-14-15------------15-14-12---10---|
|-14--15---------------------------------------|
|----------------------------------------------|
|
|        PM---------|              PM---|
| +E     E     E    E     Q        E    E
|----------------------------------------------|
|----------------------------------------------|
|----------------------------------------------|
|-(5)---------------------5--------------------|
|-(5)---------------------5--------------------|
|-(3)----3-----3----3-----3--------3----3------|


  C5
  H.             Q     +H         H
|-------------------|--------------------|
|-------------------|--------------------|
|-------------------|------------12------|
|-9-------------10--|-(10)---------------|
|-------------------|--------------------|
|-------------------|--------------------|
|
| H.             Q     +H         H
|-------------------|--------------------|
|-------------------|--------------------|
|-------------------|--------------------|
|-5-----------------|-------------5------|
|----------------3--|--(3)---------------|
|-------------------|--------------------|
|
|         PM--|            PM--|     PM|
| Q   +E  E E E  Q     +E  E E E  Q  E E
|-------------------|--------------------|
|-------------------|--------------------|
|-5---(5)--------5--|--(5)--------5------|
|-5---(5)--------5--|--(5)--------5------|
|-3---(3)-3-3-3--3--|--(3)-3-3-3--3--3-3-|
|-------------------|--------------------|


   +Q    Q     +Q     Q     +H         H
|------------------------|--------------------|
|------------------------|--------------------|
|-(12)----------------9--|--(9)-------12------|
|-------12----(12)-------|--------------------|
|------------------------|--------------------|
|------------------------|--------------------|
|
|  +Q    Q     +Q     Q     +H         H
|------------------------|--------------------|
|------------------------|--------------------|
|------------------------|--------------------|
|--(5)---9-----(9)---10--|-(10)-------12------|
|------------------------|--------------------|
|------------------------|--------------------|
|
|           PM-----|            PM--|     PM|
|   Q   +E  E   E  E  Q     +E  E E E  Q  E E
|------------------------|--------------------|
|------------------------|--------------------|
|---5---(5)-----------5--|--(5)--------5------|
|---5---(5)-----------5--|--(5)--------5------|
|---3---(3)-3---3--3--3--|--(3)-3-3-3--3--3-3-|
|------------------------|--------------------|


  A5
   H         Q    Q     +Q    Q   Q   Q
|--------------------|--------------------|
|-12--------13---12--|-(12)---------------|
|--------------------|--------9---7---9---|
|--------------------|--------------------|
|--------------------|--------------------|
|--------------------|--------------------|
|
|  W                    +H        Q   Q
|--------------------|--------------------|
|--------------------|--------------------|
|-12-----------------|-(12)---------------|
|--------------------|------------9--10---|
|--------------------|--------------------|
|--------------------|--------------------|
|
|         PM---|            PM--|     PM|
|  Q  +E  E  E E  Q     +E  E E E Q   E E
|--------------------|--------------------|
|--------------------|--------------------|
|--------------------|--------------------|
|--7--(7)---------7--|--(7)-------7-------|
|--7--(7)---------7--|--(7)-------7-------|
|--5--(5)-5--5-5--5--|--(5)-5-5-5-5---5-5-|


   +Q    Q     +Q     Q     +H.           E  E
|------------------------|---------------------|
|--------------------13--|-(13)----------17-15-|
|--(9)--12----(12)-------|---------------------|
|------------------------|---------------------|
|------------------------|---------------------|
|------------------------|---------------------|
|
|  +Q    Q     +Q     Q     +H.           E  E
|------------------------|---------------------|
|------------------------|---------------------|
|------------------------|---------------------|
|-(10)---9-----(9)-------|---------------------|
|--------------------10--|-(10)----------12-10-|
|------------------------|---------------------|
|
|           PM-----|            PM--|     PM|
|   Q   +E  E   E  E  Q     +E  E E E Q   E  E
|------------------------|---------------------|
|------------------------|---------------------|
|------------------------|---------------------|
|---7---(7)-----------7--|--(7)-------7--------|
|---7---(7)-----------7--|--(7)-------7--------|
|---5---(5)-5---5--5--5--|--(5)-5-5-5-5---5--5-|


  F5
   E  E  +Q     +Q        +Q      +Q     E  E  H
|----15-(15)---(15)b17---(15)--|-(15)--------------------|
|-13---------------------------|-------------------------|
|------------------------------|--------17p16h17---------|
|------------------------------|-------------------------|
|------------------------------|-------------------------|
|------------------------------|-------------------------|
|
|  Q      Q      Q         Q      +Q     Q     S S E Q
|------------------------------|-------------------------|
|------------------------------|-------------------------|
|----------------9--------10---|-(10)----9-----7h9p7-5---|
|--------10--------------------|-------------------------|
|--8---------------------------|-------------------------|
|------------------------------|-------------------------|
|
|            PM--------|              PM---|         PM|
|  Q     +E  E   E     E   Q      +E  E  E  E  Q     E E
|------------------------------|-------------------------|
|------------------------------|-------------------------|
|------------------------------|-------------------------|
|--3-----(3)---------------3---|--(3)----------3---------|
|--3-----(3)---------------3---|--(3)----------3---------|
|--1-----(1)-1---1-----1---1---|--(1)-1--1--1--1-----1-1-|


  G5
   +Q    E   +E      +E   E  E  E     E   +E      +E   E  S  S  E  Q
|-------19--(19)b20-(19)-17----17-|------------------------------------|
|---------------------------20----|--17--(17)b18-(17)-15-20p18p17-15---|
|-(17)----------------------------|------------------------------------|
|---------------------------------|------------------------------------|
|---------------------------------|------------------------------------|
|---------------------------------|------------------------------------|
|
|   Q    Q            Q      Q       +Q            Q      S  S  E  Q
|---------------------------------|------------------------------------|
|---------------------------------|------------------------------------|
|---------------------------12----|-(12)----------10------9h10p=9--7---|
|-------12-----------15-----------|------------------------------------|
|--14-----------------------------|------------------------------------|
|---------------------------------|------------------------------------|
|
|             PM---------|                 PM---------|            PM|
|   Q   +E    E       E   E  Q       +E    E       E   E  Q        E E
|---------------------------------|------------------------------------|
|---------------------------------|------------------------------------|
|---------------------------------|------------------------------------|
|---5---(5)------------------5----|--(5)------------------5------------|
|---5---(5)------------------5----|--(5)------------------5------------|
|---3---(3)---3-------3---3--3----|--(3)---3-------3---3--3--------3-3-|


  A5
   E  E  E   E  H          +H         H
|-----------------------|------------20\------|
|-12-13-12--------------|---------------------|
|-----------12----------|---------------------|
|--------------14-------|-(14)----------------|
|-----------------------|---------------------|
|-----------------------|---------------------|
|
|  Q     Q      Q    Q     +H         H
|-----------------------|---------------------|
|-----------------------|---------------------|
|--------------12---14--|-(14)-------17-------|
|-10----12--------------|---------------------|
|-----------------------|---------------------|
|-----------------------|---------------------|
|
|            PM---|            PM--|      PM|
|  Q    +E   E  E E  Q     +E  E E E  Q   E E
|-----------------------|---------------------|
|-----------------------|---------------------|
|-----------------------|---------------------|
|--7----(7)----------7--|--(7)--------7-------|
|--7----(7)----------7--|--(7)--------7-------|
|--5----(5)--5--5-5--5--|--(5)-5-5-5--5---5-5-|


  G5
   |-----------7-----------|  |----------7----------|
   E  E  E  E      E  E    E  E  E    E  E    E  E  E
|-19-17-15--------------------------------------------|
|----------18-----17-15---17-18-17---15---------------|
|---------------------------------------17---16-14-16-|
|-----------------------------------------------------|
|-----------------------------------------------------|
|-----------------------------------------------------|
|
|  W
|-----------------------------------------------------|
|-----------------------------------------------------|
|-16--------------------------------------------------|
|-----------------------------------------------------|
|-----------------------------------------------------|
|-----------------------------------------------------|
|
|                       PM---------|
|  Q          +E        E     E    E       Q
|-----------------------------------------------------|
|-----------------------------------------------------|
|-----------------------------------------------------|
|--5----------(5)--------------------------5----------|
|--5----------(5)--------------------------5----------|
|--3----------(3)-------3-----3----3-------3----------|


    |-----------7------------|  |-------6--------|
    E   E    E  E    E  E    E  E  E  E  E  E    E
|---------------------------------------------------||
|---------------------------------------------------||
|--17--16---14--------------------------------------||
|--------------17---15-14---15-17-15-14-------------||
|---------------------------------------17-15---14--||
|---------------------------------------------------||
|
|  +W
|---------------------------------------------------||
|---------------------------------------------------||
|-(16)----------------------------------------------||
|---------------------------------------------------||
|---------------------------------------------------||
|---------------------------------------------------||
|
|         PM--------------|              PM---|
|  +E     E       E       E     Q        E    E
|---------------------------------------------------||
|---------------------------------------------------||
|---------------------------------------------------||
|--(5)--------------------------5-------------------||
|--(5)--------------------------5-------------------||
|--(3)----3-------3-------3-----3--------3----3-----||


 2nd Guitar Solo
  C
                        T
   |--------6--------|  |-------6--------|
   E  E  E  E   E    E  E  E    E  E  E  E
|--------------12---15-22-15---12----12-15-|
|----------13---------------------13-------|
|-------12---------------------------------|
|----14------------------------------------|
|-15---------------------------------------|
|------------------------------------------|
|
|  W
|------------------------------------------|
|------------------------------------------|
|-17---------------------------------------|
|------------------------------------------|
|------------------------------------------|
|------------------------------------------|
|
|                 PM---------|
|  Q       +E     E     E    E     Q
|------------------------------------------|
|--5-------(5)---------------------5-------|
|--5-------(5)---------------------5-------|
|--5-------(5)---------------------5-------|
|--3-------(3)----3-----3----3-----3-------|
|------------------------------------------|


   T
   |---------6---------|  |-------6--------|
   E   E    E  E  E    E  E  E  E  E  E    E
|-20--15---12------------------------12---15-|
|-------------13------------------13---------|
|----------------12------------12------------|
|---------------------14----14---------------|
|------------------------15------------------|
|--------------------------------------------|
|
|  W
|--------------------------------------------|
|--------------------------------------------|
|--------------------------------------------|
|--------------------------------------------|
|--------------------------------------------|
|--------------------------------------------|
|
|        PM---------|              PM---|
| +E     E     E    E     Q        E    E
|--------------------------------------------|
|-(5)---------------------5------------------|
|-(5)---------------------5------------------|
|-(5)---------------------5------------------|
|-(3)----3-----3----3-----3--------3----3----|
|--------------------------------------------|


   |--------6--------|  |-------6--------|
   E  E  E  E   E    E  E  E    E  E  E  E
|-19-15---------------------------------15-|
|-------17---------------------------17----|
|----------16---------------------16-------|
|--------------17--------------17----------|
|-------------------19-15-19---------------|
|------------------------------------------|
|
| Gtr I
|                 PM---------|
|  Q       +E     E     E    E     Q
|------------------------------------------|
|--5-------(5)---------------------5-------|
|--5-------(5)---------------------5-------|
|--5-------(5)---------------------5-------|
|--3-------(3)----3-----3----3-----3-------|
|------------------------------------------|


   |----------6-----------|  |-------6--------|
   S   S  E    E  E  E    E  E  E  E  E  E    E
|-19s=20s19---15------------------------15---19--|
|----------------17------------------17----------|
|-------------------16------------16-------------|
|------------------------17----17----------------|
|---------------------------19-------------------|
|------------------------------------------------|
|
|           PM---------|              PM---|
| +E        E     E    E     Q        E    E
|------------------------------------------------|
|-(5)------------------------5-------------------|
|-(5)------------------------5-------------------|
|-(5)------------------------5-------------------|
|-(3)-------3-----3----3-----3--------3----3-----|
|------------------------------------------------|


  Am                              Am/G
   |--------6--------|  |-------6--------|
   E  E  E  E   E    E  E  E    E  E  E  E
|-17-12-------------12-17-12---------------|
|-------13-----13--------------13----------|
|----------14---------------------14-------|
|------------------------------------14----|
|---------------------------------------15-|
|------------------------------------------|
|
|                 PM---------|
|  Q       +E     E     E    E     Q
|------------------------------------------|
|------------------------------------------|
|--5-------(5)---------------------4-------|
|--7-------(7)---------------------7-------|
|--7-------(7)---------------------7-------|
|--5-------(5)----5-----5----5-----3-------|


   |---------6---------|  |-------6--------|
   E   E    E  E  E    E  E  E  E  E  E    E
|---------------------12-17-12------------12-|
|----------------13------------13----13------|
|-------------14------------------14---------|
|----------14--------------------------------|
|-12--15-------------------------------------|
|--------------------------------------------|
|
|        PM---------|              PM---|
| +E     E     E    E     Q        E    E
|--------------------------------------------|
|--------------------------------------------|
|-(4)---------------------4------------------|
|-(7)---------------------7------------------|
|-(7)---------------------7------------------|
|-(3)----3-----3----3-----3--------3----3----|


  Am                                 Am/G
   |---------6----------|  |-------6--------|
   S  S  E  E  E   E    E  E  E    E  E  E  E
|-15s19s15---------------------------------15-|
|----------17---------------------------17----|
|-------------16---------------------16-------|
|-----------------17--------------17----------|
|----------------------19-15-19---------------|
|---------------------------------------------|
|
|                    PM---------|
|  Q          +E     E     E    E     Q
|---------------------------------------------|
|---------------------------------------------|
|--5----------(5)---------------------4-------|
|--7----------(7)---------------------7-------|
|--7----------(7)---------------------7-------|
|--5----------(5)----5-----5----5-----3-------|


   |----------6-----------|  |-------6--------|
   S   S  E    E  E  E    E  E  E  E  E  E    E
|-19s=20s19---15------------------------15---19-|
|----------------17------------------17---------|
|-------------------16------------16------------|
|------------------------17----17---------------|
|---------------------------19------------------|
|-----------------------------------------------|
|
|           PM---------|              PM---|
| +E        E     E    E     Q        E    E
|-----------------------------------------------|
|-----------------------------------------------|
|-(4)------------------------4------------------|
|-(7)------------------------7------------------|
|-(7)------------------------7------------------|
|-(3)-------3-----3----3-----3--------3----3----|


  F5
   |--------6--------|  |-------6--------|
   E  E  E  E   E    E  E  E    E  E  E  E
|-20-17-------------17-20-17---------------|
|-------18-----18--------------18----------|
|----------17---------------------17-------|
|------------------------------------19----|
|---------------------------------------20-|
|------------------------------------------|
|
|                 PM---------|
|  Q       +E     E     E    E     Q
|------------------------------------------|
|------------------------------------------|
|------------------------------------------|
|--3-------(3)---------------------3-------|
|--3-------(3)---------------------3-------|
|--1-------(1)----1-----1----1-----1-------|


    |-------6--------|  |-------6--------|
   +Q     E  E  E    E  E  E  E  E  E    E
|-------------------17-20-17---------------|
|--------------18------------18------------|
|-----------17------------------17---------|
|--------19------------------------19------|
|-(20)----------------------------------20-|
|------------------------------------------|
|
|      PM---------|              PM---|
|  +E  E     E    E     Q        E    E
|------------------------------------------|
|------------------------------------------|
|------------------------------------------|
|--(3)------------------3------------------|
|--(3)------------------3------------------|
|--(1)-1-----1----1-----1--------1----1----|


  G
   |--------6--------|  |-------6--------|    |---------6---------|
   E  E  E  E   E    E  E  E    E  E  E  E    E   E    E  E  E    E  +H
|--------------19---22-19------------19-22-|-19--------------------------------|
|----------20-------------20------20-------|-----20----------------------------|
|-------19---------------------19----------|----------19-----------------------|
|----21------------------------------------|-------------21--------------------|
|-22---------------------------------------|----------------22---17-(17)-------|
|------------------------------------------|-----------------------------------|
|
|                 PM---------|                      PM---------|          PM|
|  Q       +E     E     E    E     Q         +E     E     E    E      Q   E E
|------------------------------------------|-----------------------------------|
|------------------------------------------|-----------------------------------|
|------------------------------------------|-----------------------------------|
|--5-------(5)---------------------5-------|-(5)----------------------5--------|
|--5-------(5)---------------------5-------|-(5)----------------------5--------|
|--3-------(3)----3-----3----3-----3-------|-(3)----3-----3----3------3---3-3--|


  Am
   |--------6--------|  |-------6--------|
   E  E  E  E   E    E  E  E    E  E  E  E
|-20-20-20-17--17---17---------------------|
|----------------------17-17---17----------|
|---------------------------------17-17-17-|
|------------------------------------------|
|------------------------------------------|
|------------------------------------------|
|
|                 PM---------|
|  Q       +E     E     E    E     Q
|------------------------------------------|
|------------------------------------------|
|--5-------(5)---------------------5-------|
|--7-------(7)---------------------7-------|
|--7-------(7)---------------------7-------|
|--5-------(5)----5-----5----5-----5-------|


   |---------6---------|  |-------6--------|
   E   E    E  E  E    E  E  E  E  E  E    E
|--------------------------------------------|
|--------------------------------------------|
|--------------------------------------------|
|-19--19---19--------------------------------|
|-------------19-19---19---------------------|
|------------------------20-20-20-17-17---17-|
|
|        PM---------|              PM---|
| +E     E     E    E     Q        E    E
|--------------------------------------------|
|--------------------------------------------|
|-(5)---------------------5------------------|
|-(7)---------------------7------------------|
|-(7)---------------------7------------------|
|-(5)----5-----5----5-----5--------5----5----|


  G
   |--------6--------|  |-------6--------|
   E  E  E  E   E    E  E  E    E  E  E  E
|-------------------13-19-13------------13-|
|--------------15--------------15----15----|
|----------16---------------------16-------|
|-------17---------------------------------|
|----14------------------------------------|
|-15---------------------------------------|
|
|                 PM---------|
|  Q       +E     E     E    E     Q
|------------------------------------------|
|------------------------------------------|
|--4-------(4)---------------------4-------|
|--5-------(5)---------------------5-------|
|--5-------(5)---------------------5-------|
|--3-------(3)----3-----3----3-----3-------|


   |---------6---------|  |-------6--------|
   E   E    E  E  E    E  E  E  E  E  E    E
|-19--13----------------------------------13-||
|----------15------------------------15------||
|-------------16------------------16---------||
|----------------17------------17------------||
|---------------------14----14---------------||
|------------------------15------------------||
|
|        PM---------|              PM---|
| +E     E     E    E     Q        E    E
|--------------------------------------------||
|--------------------------------------------||
|-(4)---------------------4------------------||
|-(5)---------------------5------------------||
|-(5)---------------------5------------------||
|-(3)----3-----3----3-----3--------3----3----||


 Outro
  C5
   W                          +W
|-15-----------------------|-(15)----------------------|
|--------------------------|---------------------------|
|--------------------------|---------------------------|
|--------------------------|---------------------------|
|--------------------------|---------------------------|
|--------------------------|---------------------------|
|
| Gtr II
|  E  E  E   E  E  E  E  E     E   E  E  E  E  E  E  E
|-19-20-19-----------------|---------------------------|
|-----------20----17s15----|---------------------------|
|--------------19-------17-|--16--17-16----------------|
|--------------------------|------------14----14-------|
|--------------------------|---------------17----17-15-|
|--------------------------|---------------------------|
|
| Gtr I
|            PM---|                PM---|         PM|
|  Q    +E   E  E  E  Q       +E   E  E  E  Q     E  E
|--------------------------|---------------------------|
|--------------------------|---------------------------|
|--5----(5)-----------5----|--(5)-----------5----------|
|--5----(5)-----------5----|--(5)-----------5----------|
|--3----(3)--3--3--3--3----|--(3)--3--3--3--3-----3--3-|
|--------------------------|---------------------------|


   +W                           +W
|-(15)-----------------------|-(15)----------------------|
|----------------------------|---------------------------|
|----------------------------|---------------------------|
|----------------------------|---------------------------|
|----------------------------|---------------------------|
|----------------------------|---------------------------|
|
|   E   E  E   E  E  E  E  E     E   E  E  E  E  E  E  E
|--19--20-19-----------------|---------------------------|
|-------------20----17s15----|---------------------------|
|----------------19-------17-|--16--17-16----------------|
|----------------------------|------------14----14-------|
|----------------------------|---------------17----17-15-|
|----------------------------|---------------------------|
|
|              PM---|                PM---|         PM|
|   Q     +E   E  E  E  Q       +E   E  E  E  Q     E  E
|----------------------------|---------------------------|
|----------------------------|---------------------------|
|---5-----(5)-----------5----|--(5)-----------5----------|
|---5-----(5)-----------5----|--(5)-----------5----------|
|---3-----(3)--3--3--3--3----|--(3)--3--3--3--3-----3--3-|
|----------------------------|---------------------------|


  A5
  Gtr II
   E  E  E   E  E  E  E  E    E   E  E  E  E  E  E  E
|-19-20-19-----------------|--------------------------|
|-----------20----17s15----|--------------------------|
|--------------19-------17-|-16--17-16----------------|
|--------------------------|-----------14----14-------|
|--------------------------|--------------17----17-15-|
|--------------------------|--------------------------|
|
| Gtr I
|            PM---|               PM---|         PM|
|  Q    +E   E  E  E  Q      +E   E  E  E  Q     E  E
|--------------------------|--------------------------|
|--------------------------|--------------------------|
|--------------------------|--------------------------|
|--7----(7)-----------7----|-(7)-----------7----------|
|--7----(7)-----------7----|-(7)-----------7----------|
|--5----(5)--5--5--5--5----|-(5)--5--5--5--5-----5--5-|


   E  E  E   E  E  E  E  E    E   E  E  E  E  E  E  E
|-19-20-19-----------------|--------------------------|
|-----------20----17s15----|--------------------------|
|--------------19-------17-|-16--17-16----------------|
|--------------------------|-----------14----14-------|
|--------------------------|--------------17----17-15-|
|--------------------------|--------------------------|
|
|            PM---|               PM---|         PM|
|  Q    +E   E  E  E  Q      +E   E  E  E  Q     E  E
|--------------------------|--------------------------|
|--------------------------|--------------------------|
|--------------------------|--------------------------|
|--7----(7)-----------7----|-(7)-----------7----------|
|--7----(7)-----------7----|-(7)-----------7----------|
|--5----(5)--5--5--5--5----|-(5)--5--5--5--5-----5--5-|


  F5
   E  E  E   E  E  E  E  E    E   E  E  E  E  E  E  E
|-19-20-19-----------------|--------------------------|
|-----------20----17s15----|--------------------------|
|--------------19-------17-|-16--17-16----------------|
|--------------------------|-----------14----14-------|
|--------------------------|--------------17----17-15-|
|--------------------------|--------------------------|
|
|            PM---|               PM---|         PM|
|  Q    +E   E  E  E  Q      +E   E  E  E  Q     E  E
|--------------------------|--------------------------|
|--------------------------|--------------------------|
|--------------------------|--------------------------|
|--3----(3)-----------3----|-(3)-----------3----------|
|--3----(3)-----------3----|-(3)-----------3----------|
|--1----(1)--1--1--1--1----|-(1)--1--1--1--1-----1--1-|


  G5
   E  E  E   E  E  E  E  E    E   E  E  E  E  E  E  E
|-19-20-19-----------------|--------------------------|
|-----------20----17s15----|--------------------------|
|--------------19-------17-|-16--17-16----------------|
|--------------------------|-----------14----14-------|
|--------------------------|--------------17----17-15-|
|--------------------------|--------------------------|
|
|            PM---|               PM---|         PM|
|  Q    +E   E  E  E  Q      +E   E  E  E  Q     E  E
|--------------------------|--------------------------|
|--------------------------|--------------------------|
|--------------------------|--------------------------|
|--5----(5)-----------5----|-(5)-----------5----------|
|--5----(5)-----------5----|-(5)-----------5----------|
|--3----(3)--3--3--3--3----|-(3)--3--3--3--3-----3--3-|


  A5
   E  E  E   E  E  E  E  E    E   E  E  E  E  E  E  E
|-19-20-19-----------------|--------------------------|
|-----------20----17s15----|--------------------------|
|--------------19-------17-|-16--17-16----------------|
|--------------------------|-----------14----14-------|
|--------------------------|--------------17----17-15-|
|--------------------------|--------------------------|
|
|            PM---|               PM---|         PM|
|  Q    +E   E  E  E  Q      +E   E  E  E  Q     E  E
|--------------------------|--------------------------|
|--------------------------|--------------------------|
|--5----(5)-----------5----|-(5)-----------5----------|
|--7----(7)-----------7----|-(7)-----------7----------|
|--7----(7)-----------7----|-(7)-----------7----------|
|--5----(5)--5--5--5--5----|-(5)--5--5--5--5-----5--5-|


  G
   E  E  E   E  E  E  E  E    E   E  E  E  E  E  E  E
|-19-20-19-----------------|--------------------------|
|-----------20----17s15----|--------------------------|
|--------------19-------17-|-16--17-16----------------|
|--------------------------|-----------14----14-------|
|--------------------------|--------------17----17-15-|
|--------------------------|--------------------------|
|
|            PM---|               PM---|         PM|
|  Q    +E   E  E  E  Q      +E   E  E  E  Q     E  E
|--------------------------|--------------------------|
|--------------------------|--------------------------|
|--4----(4)-----------4----|-(4)-----------4----------|
|--5----(5)-----------5----|-(5)-----------5----------|
|--5----(5)-----------5----|-(5)-----------5----------|
|--3----(3)--3--3--3--3----|-(3)--3--3--3--3-----3--3-|


  C5
   E  E  E   E  E  E  E  E    E   E  E  E  E  E  E  E
|-19-20-19-----------------|--------------------------|
|-----------20----17s15----|--------------------------|
|--------------19-------17-|-16--17-16----------------|
|--------------------------|-----------14----14-------|
|--------------------------|--------------17----17-15-|
|--------------------------|--------------------------|
|
|            PM---|               PM---|         PM|
|  Q    +E   E  E  E  Q      +E   E  E  E  Q     E  E
|--------------------------|--------------------------|
|--------------------------|--------------------------|
|--5----(5)-----------5----|-(5)-----------5----------|
|--5----(5)-----------5----|-(5)-----------5----------|
|--3----(3)--3--3--3--3----|-(3)--3--3--3--3-----3--3-|
|--------------------------|--------------------------|


   E  E  E   E  E  E  E  E    E   E  E  E  E  E  E  E
|-19-20-19-----------------|--------------------------|
|-----------20----17s15----|--------------------------|
|--------------19-------17-|-16--17-16----------------|
|--------------------------|-----------14----14-------|
|--------------------------|--------------17----17-15-|
|--------------------------|--------------------------|
|
|            PM---|               PM---|         PM|
|  Q    +E   E  E  E  Q      +E   E  E  E  Q     E  E
|--------------------------|--------------------------|
|--------------------------|--------------------------|
|--5----(5)-----------5----|-(5)-----------5----------|
|--5----(5)-----------5----|-(5)-----------5----------|
|--3----(3)--3--3--3--3----|-(3)--3--3--3--3-----3--3-|
|--------------------------|--------------------------|


  A5
   E  E  E   E  E  E  E  E    E   E  E  E  E  E  E  E
|-19-20-19-----------------|--------------------------|
|-----------20----17s15----|--------------------------|
|--------------19-------17-|-16--17-16----------------|
|--------------------------|-----------14----14-------|
|--------------------------|--------------17----17-15-|
|--------------------------|--------------------------|
|
|            PM---|               PM---|         PM|
|  Q    +E   E  E  E  Q      +E   E  E  E  Q     E  E
|--------------------------|--------------------------|
|--------------------------|--------------------------|
|--------------------------|--------------------------|
|--7----(7)-----------7----|-(7)-----------7----------|
|--7----(7)-----------7----|-(7)-----------7----------|
|--5----(5)--5--5--5--5----|-(5)--5--5--5--5-----5--5-|


   E  E  E   E  E  E  E  E    E   E  E  E  E  E  E  E
|-19-20-19-----------------|--------------------------|
|-----------20----17s15----|--------------------------|
|--------------19-------17-|-16--17-16----------------|
|--------------------------|-----------14----14-------|
|--------------------------|--------------17----17-15-|
|--------------------------|--------------------------|
|
|            PM---|               PM---|         PM|
|  Q    +E   E  E  E  Q      +E   E  E  E  Q     E  E
|--------------------------|--------------------------|
|--------------------------|--------------------------|
|--------------------------|--------------------------|
|--7----(7)-----------7----|-(7)-----------7----------|
|--7----(7)-----------7----|-(7)-----------7----------|
|--5----(5)--5--5--5--5----|-(5)--5--5--5--5-----5--5-|


  F5
   E  E  E   E  E  E  E  E    E   E  E  E  E  E  E  E
|-19-20-19-----------------|--------------------------|
|-----------20----17s15----|--------------------------|
|--------------19-------17-|-16--17-16----------------|
|--------------------------|-----------14----14-------|
|--------------------------|--------------17----17-15-|
|--------------------------|--------------------------|
|
|            PM---|               PM---|         PM|
|  Q    +E   E  E  E  Q      +E   E  E  E  Q     E  E
|--------------------------|--------------------------|
|--------------------------|--------------------------|
|--------------------------|--------------------------|
|--3----(3)-----------3----|-(3)-----------3----------|
|--3----(3)-----------3----|-(3)-----------3----------|
|--1----(1)--1--1--1--1----|-(1)--1--1--1--1-----1--1-|


  G5
   E  E  E   E  E  E  E  E    E   E  E  E  E  E  E  E
|-19-20-19-----------------|--------------------------|
|-----------20----17s15----|--------------------------|
|--------------19-------17-|-16--17-16----------------|
|--------------------------|-----------14----14-------|
|--------------------------|--------------17----17-15-|
|--------------------------|--------------------------|
|
|            PM---|               PM---|         PM|
|  Q    +E   E  E  E  Q      +E   E  E  E  Q     E  E
|--------------------------|--------------------------|
|--------------------------|--------------------------|
|--------------------------|--------------------------|
|--5----(5)-----------5----|-(5)-----------5----------|
|--5----(5)-----------5----|-(5)-----------5----------|
|--3----(3)--3--3--3--3----|-(3)--3--3--3--3-----3--3-|


  Am
   E  E  E   E  E  E  E  E    E   E  E  E  E  E  E  E
|-19-20-19-----------------|--------------------------|
|-----------20----17s15----|--------------------------|
|--------------19-------17-|-16--17-16----------------|
|--------------------------|-----------14----14-------|
|--------------------------|--------------17----17-15-|
|--------------------------|--------------------------|
|
|            PM---|               PM---|         PM|
|  Q    +E   E  E  E  Q      +E   E  E  E  Q     E  E
|--------------------------|--------------------------|
|--------------------------|--------------------------|
|--5----(5)-----------5----|-(5)-----------5----------|
|--7----(7)-----------7----|-(7)-----------7----------|
|--7----(7)-----------7----|-(7)-----------7----------|
|--5----(5)--5--5--5--5----|-(5)--5--5--5--5-----5--5-|


  G
   E  E  E   E  E  E  E  E    E   E  E  E  E  E  E  E
|-19-20-19-----------------|--------------------------*|
|-----------20----17s15----|--------------------------*|
|--------------19-------17-|-16--17-16----------------*|
|--------------------------|-----------14----14-------*|
|--------------------------|--------------17----17-15-*|
|--------------------------|--------------------------*|
|
|            PM---|               PM---|         PM|
|  Q    +E   E  E  E  Q      +E   E  E  E  Q     E  E
|--------------------------|--------------------------*|
|--------------------------|--------------------------*|
|--4----(4)-----------4----|-(4)-----------4----------*|
|--5----(5)-----------5----|-(5)-----------5----------*|
|--5----(5)-----------5----|-(5)-----------5----------*|
|--3----(3)--3--3--3--3----|-(3)--3--3--3--3-----3--3-*|



Duration Legend
---------------
W - whole; H - half; Q - quarter; E - 8th; S - 16th; T - 32nd; X - 64th; a - acciaccatura
+ - note tied to previous; . - note dotted; .. - note double dotted
Uncapitalized letters represent notes that are staccato (1/2 duration)
Irregular groupings are notated above the duration line
Duration letters will always appear directly above the note/fret number it represents the
duration for.  Duration letters with no fret number below them represent rests.  Multi-
bar rests are notated in the form Wxn, where n is the number of bars to rest for.  Low
melody durations appear below the staff

Tablature Legend
----------------
 h   - hammer-on
 p   - pull-off
 b   - bend
 pb  - pre-bend
 r   - bend release (if no number after the r, then release immediately)
 /\  - slide into or out of (from/to "nowhere")
 s   - legato slide
 S   - shift slide
<n> - natural harmonic
[n]  - artificial harmonic
n(n) - tapped harmonic
 ~   - vibrato
 tr  - trill
 T   - tap
 TP  - trem. picking
 PM  - palm muting
\n/  - tremolo bar dip; n = amount to dip
 \n  - tremolo bar down
 n/  - tremolo bar up
/n\  - tremolo bar inverted dip
 =   - hold bend; also acts as connecting device for hammers/pulls
 <> - volume swell (louder/softer)
 x   - on rhythm slash represents muted slash
 o   - on rhythm slash represents single note slash

Misc Legend
-----------
 |  - bar
||  - double bar
||o - repeat start
o|| - repeat end
*|  - double bar (ending)
 :  - bar (freetime)
 $  - Segno
 &  - Coda
Tempo markers - <E/E./Q/Q./H/H.> = BPM(8/16=s8/s16), where s8 = swing 8ths, s16 = swing 16ths


*** GuitarCats.com ***